ISO-10303-21;
HEADER;
/* Generated by software containing ST-Developer
 * from STEP Tools, Inc. (www.steptools.com) 
 */
/* OPTION: strings as raw bytes, not using required /X/ escapes */

FILE_DESCRIPTION(
/* description */ (''),
/* implementation_level */ '2;1');

FILE_NAME(
/* name */ '32.016005.640.316',
/* time_stamp */ '2019-03-21T11:28:46+01:00',
/* author */ ('Murat Coskun Bicak'),
/* organization */ ('Evac AG'),
/* preprocessor_version */ 'ST-DEVELOPER v16.7',
/* originating_system */ 'DEX',
/* authorisation */ $);

FILE_SCHEMA (('AUTOMOTIVE_DESIGN {1 0 10303 214 3 1 1}'));
ENDSEC;

DATA;
#10=PROPERTY_DEFINITION_REPRESENTATION(#14,#12);
#11=PROPERTY_DEFINITION_REPRESENTATION(#15,#13);
#12=REPRESENTATION('',(#16),#351);
#13=REPRESENTATION('',(#17),#351);
#14=PROPERTY_DEFINITION('pmi validation property','',#356);
#15=PROPERTY_DEFINITION('pmi validation property','',#356);
#16=VALUE_REPRESENTATION_ITEM('number of annotations',COUNT_MEASURE(0.));
#17=VALUE_REPRESENTATION_ITEM('number of views',COUNT_MEASURE(0.));
#18=SHAPE_REPRESENTATION_RELATIONSHIP('','',#205,#19);
#19=ADVANCED_BREP_SHAPE_REPRESENTATION('',(#203),#351);
#20=TOROIDAL_SURFACE('',#226,13.5,1.5);
#21=TOROIDAL_SURFACE('',#227,10.5,0.2);
#22=CONICAL_SURFACE('',#214,9.60177232646735,1.30899693899575);
#23=CONICAL_SURFACE('',#218,10.7,1.22173047639603);
#24=B_SPLINE_CURVE_WITH_KNOTS('',3,(#308,#309,#310,#311),.UNSPECIFIED.,
 .F.,.F.,(4,4),(0.,0.002),.UNSPECIFIED.);
#25=B_SPLINE_CURVE_WITH_KNOTS('',3,(#323,#324,#325,#326),.UNSPECIFIED.,
 .F.,.F.,(4,4),(0.,0.002),.UNSPECIFIED.);
#26=CYLINDRICAL_SURFACE('',#210,10.7);
#27=CYLINDRICAL_SURFACE('',#216,15.);
#28=CYLINDRICAL_SURFACE('',#223,8.);
#29=CYLINDRICAL_SURFACE('',#228,20.);
#30=CIRCLE('',#208,10.7);
#31=CIRCLE('',#209,15.);
#32=CIRCLE('',#211,10.7);
#33=CIRCLE('',#213,9.60177232646735);
#34=CIRCLE('',#215,13.8882285676538);
#35=CIRCLE('',#217,15.);
#36=CIRCLE('',#219,10.4315959713349);
#37=CIRCLE('',#220,9.01284554186392);
#38=CIRCLE('',#222,8.);
#39=CIRCLE('',#224,8.);
#40=CIRCLE('',#229,20.);
#41=CIRCLE('',#230,20.);
#42=ORIENTED_EDGE('',*,*,#82,.F.);
#43=ORIENTED_EDGE('',*,*,#83,.F.);
#44=ORIENTED_EDGE('',*,*,#84,.T.);
#45=ORIENTED_EDGE('',*,*,#85,.T.);
#46=ORIENTED_EDGE('',*,*,#86,.T.);
#47=ORIENTED_EDGE('',*,*,#87,.F.);
#48=ORIENTED_EDGE('',*,*,#88,.T.);
#49=ORIENTED_EDGE('',*,*,#89,.T.);
#50=ORIENTED_EDGE('',*,*,#83,.T.);
#51=ORIENTED_EDGE('',*,*,#90,.F.);
#52=ORIENTED_EDGE('',*,*,#91,.T.);
#53=ORIENTED_EDGE('',*,*,#90,.T.);
#54=ORIENTED_EDGE('',*,*,#92,.T.);
#55=ORIENTED_EDGE('',*,*,#93,.T.);
#56=ORIENTED_EDGE('',*,*,#94,.F.);
#57=ORIENTED_EDGE('',*,*,#85,.F.);
#58=ORIENTED_EDGE('',*,*,#95,.T.);
#59=ORIENTED_EDGE('',*,*,#96,.T.);
#60=ORIENTED_EDGE('',*,*,#97,.F.);
#61=ORIENTED_EDGE('',*,*,#98,.F.);
#62=ORIENTED_EDGE('',*,*,#97,.T.);
#63=ORIENTED_EDGE('',*,*,#99,.F.);
#64=ORIENTED_EDGE('',*,*,#98,.T.);
#65=ORIENTED_EDGE('',*,*,#99,.T.);
#66=ORIENTED_EDGE('',*,*,#91,.F.);
#67=ORIENTED_EDGE('',*,*,#92,.F.);
#68=ORIENTED_EDGE('',*,*,#86,.F.);
#69=ORIENTED_EDGE('',*,*,#96,.F.);
#70=ORIENTED_EDGE('',*,*,#100,.T.);
#71=ORIENTED_EDGE('',*,*,#88,.F.);
#72=ORIENTED_EDGE('',*,*,#101,.F.);
#73=ORIENTED_EDGE('',*,*,#93,.F.);
#74=ORIENTED_EDGE('',*,*,#94,.T.);
#75=ORIENTED_EDGE('',*,*,#101,.T.);
#76=ORIENTED_EDGE('',*,*,#87,.T.);
#77=ORIENTED_EDGE('',*,*,#82,.T.);
#78=ORIENTED_EDGE('',*,*,#84,.F.);
#79=ORIENTED_EDGE('',*,*,#89,.F.);
#80=ORIENTED_EDGE('',*,*,#100,.F.);
#81=ORIENTED_EDGE('',*,*,#95,.F.);
#82=EDGE_CURVE('',#102,#103,#118,.T.);
#83=EDGE_CURVE('',#104,#102,#30,.T.);
#84=EDGE_CURVE('',#104,#105,#119,.T.);
#85=EDGE_CURVE('',#105,#103,#31,.T.);
#86=EDGE_CURVE('',#106,#106,#32,.F.);
#87=EDGE_CURVE('',#107,#102,#120,.T.);
#88=EDGE_CURVE('',#107,#108,#24,.T.);
#89=EDGE_CURVE('',#108,#104,#121,.T.);
#90=EDGE_CURVE('',#109,#109,#33,.T.);
#91=EDGE_CURVE('',#110,#110,#34,.T.);
#92=EDGE_CURVE('',#111,#111,#35,.F.);
#93=EDGE_CURVE('',#112,#113,#25,.T.);
#94=EDGE_CURVE('',#103,#113,#122,.F.);
#95=EDGE_CURVE('',#105,#112,#123,.F.);
#96=EDGE_CURVE('',#114,#114,#36,.F.);
#97=EDGE_CURVE('',#115,#115,#37,.T.);
#98=EDGE_CURVE('',#116,#116,#38,.T.);
#99=EDGE_CURVE('',#117,#117,#39,.T.);
#100=EDGE_CURVE('',#112,#108,#40,.T.);
#101=EDGE_CURVE('',#113,#107,#41,.T.);
#102=VERTEX_POINT('',#296);
#103=VERTEX_POINT('',#297);
#104=VERTEX_POINT('',#299);
#105=VERTEX_POINT('',#301);
#106=VERTEX_POINT('',#305);
#107=VERTEX_POINT('',#307);
#108=VERTEX_POINT('',#312);
#109=VERTEX_POINT('',#316);
#110=VERTEX_POINT('',#319);
#111=VERTEX_POINT('',#322);
#112=VERTEX_POINT('',#327);
#113=VERTEX_POINT('',#328);
#114=VERTEX_POINT('',#333);
#115=VERTEX_POINT('',#335);
#116=VERTEX_POINT('',#338);
#117=VERTEX_POINT('',#341);
#118=LINE('',#295,#124);
#119=LINE('',#300,#125);
#120=LINE('',#306,#126);
#121=LINE('',#313,#127);
#122=LINE('',#329,#128);
#123=LINE('',#330,#129);
#124=VECTOR('',#237,1000.);
#125=VECTOR('',#240,1000.);
#126=VECTOR('',#247,1000.);
#127=VECTOR('',#248,1000.);
#128=VECTOR('',#261,1000.);
#129=VECTOR('',#262,1000.);
#130=EDGE_LOOP('',(#42,#43,#44,#45));
#131=EDGE_LOOP('',(#46));
#132=EDGE_LOOP('',(#47,#48,#49,#50));
#133=EDGE_LOOP('',(#51));
#134=EDGE_LOOP('',(#52));
#135=EDGE_LOOP('',(#53));
#136=EDGE_LOOP('',(#54));
#137=EDGE_LOOP('',(#55,#56,#57,#58));
#138=EDGE_LOOP('',(#59));
#139=EDGE_LOOP('',(#60));
#140=EDGE_LOOP('',(#61));
#141=EDGE_LOOP('',(#62));
#142=EDGE_LOOP('',(#63));
#143=EDGE_LOOP('',(#64));
#144=EDGE_LOOP('',(#65));
#145=EDGE_LOOP('',(#66));
#146=EDGE_LOOP('',(#67));
#147=EDGE_LOOP('',(#68));
#148=EDGE_LOOP('',(#69));
#149=EDGE_LOOP('',(#70,#71,#72,#73));
#150=EDGE_LOOP('',(#74,#75,#76,#77));
#151=EDGE_LOOP('',(#78,#79,#80,#81));
#152=FACE_BOUND('',#130,.T.);
#153=FACE_BOUND('',#131,.T.);
#154=FACE_BOUND('',#132,.T.);
#155=FACE_BOUND('',#133,.T.);
#156=FACE_BOUND('',#134,.T.);
#157=FACE_BOUND('',#135,.T.);
#158=FACE_BOUND('',#136,.T.);
#159=FACE_BOUND('',#137,.T.);
#160=FACE_BOUND('',#138,.T.);
#161=FACE_BOUND('',#139,.T.);
#162=FACE_BOUND('',#140,.T.);
#163=FACE_BOUND('',#141,.T.);
#164=FACE_BOUND('',#142,.T.);
#165=FACE_BOUND('',#143,.T.);
#166=FACE_BOUND('',#144,.T.);
#167=FACE_BOUND('',#145,.T.);
#168=FACE_BOUND('',#146,.T.);
#169=FACE_BOUND('',#147,.T.);
#170=FACE_BOUND('',#148,.T.);
#171=FACE_BOUND('',#149,.T.);
#172=FACE_BOUND('',#150,.T.);
#173=FACE_BOUND('',#151,.T.);
#174=PLANE('',#207);
#175=PLANE('',#212);
#176=PLANE('',#221);
#177=PLANE('',#225);
#178=PLANE('',#231);
#179=PLANE('',#232);
#180=ADVANCED_FACE('',(#152),#174,.F.);
#181=ADVANCED_FACE('',(#153,#154),#26,.F.);
#182=ADVANCED_FACE('',(#155),#175,.F.);
#183=ADVANCED_FACE('',(#156,#157),#22,.T.);
#184=ADVANCED_FACE('',(#158,#159),#27,.T.);
#185=ADVANCED_FACE('',(#160,#161),#23,.T.);
#186=ADVANCED_FACE('',(#162,#163),#176,.F.);
#187=ADVANCED_FACE('',(#164,#165),#28,.F.);
#188=ADVANCED_FACE('',(#166),#177,.F.);
#189=ADVANCED_FACE('',(#167,#168),#20,.T.);
#190=ADVANCED_FACE('',(#169,#170),#21,.F.);
#191=ADVANCED_FACE('',(#171),#29,.F.);
#192=ADVANCED_FACE('',(#172),#178,.T.);
#193=ADVANCED_FACE('',(#173),#179,.F.);
#194=CLOSED_SHELL('',(#180,#181,#182,#183,#184,#185,#186,#187,#188,#189,
#190,#191,#192,#193));
#195=STYLED_ITEM('',(#196),#203);
#196=PRESENTATION_STYLE_ASSIGNMENT((#197));
#197=SURFACE_STYLE_USAGE(.BOTH.,#198);
#198=SURFACE_SIDE_STYLE('',(#199));
#199=SURFACE_STYLE_FILL_AREA(#200);
#200=FILL_AREA_STYLE('',(#201));
#201=FILL_AREA_STYLE_COLOUR('',#202);
#202=COLOUR_RGB('',0.506983280181885,0.531564235687256,0.550000011920929);
#203=MANIFOLD_SOLID_BREP('',#194);
#204=SHAPE_DEFINITION_REPRESENTATION(#356,#205);
#205=SHAPE_REPRESENTATION('32.016005.640.316',(#206),#351);
#206=AXIS2_PLACEMENT_3D('',#293,#233,#234);
#207=AXIS2_PLACEMENT_3D('',#294,#235,#236);
#208=AXIS2_PLACEMENT_3D('',#298,#238,#239);
#209=AXIS2_PLACEMENT_3D('',#302,#241,#242);
#210=AXIS2_PLACEMENT_3D('',#303,#243,#244);
#211=AXIS2_PLACEMENT_3D('',#304,#245,#246);
#212=AXIS2_PLACEMENT_3D('',#314,#249,#250);
#213=AXIS2_PLACEMENT_3D('',#315,#251,#252);
#214=AXIS2_PLACEMENT_3D('',#317,#253,#254);
#215=AXIS2_PLACEMENT_3D('',#318,#255,#256);
#216=AXIS2_PLACEMENT_3D('',#320,#257,#258);
#217=AXIS2_PLACEMENT_3D('',#321,#259,#260);
#218=AXIS2_PLACEMENT_3D('',#331,#263,#264);
#219=AXIS2_PLACEMENT_3D('',#332,#265,#266);
#220=AXIS2_PLACEMENT_3D('',#334,#267,#268);
#221=AXIS2_PLACEMENT_3D('',#336,#269,#270);
#222=AXIS2_PLACEMENT_3D('',#337,#271,#272);
#223=AXIS2_PLACEMENT_3D('',#339,#273,#274);
#224=AXIS2_PLACEMENT_3D('',#340,#275,#276);
#225=AXIS2_PLACEMENT_3D('',#342,#277,#278);
#226=AXIS2_PLACEMENT_3D('',#343,#279,#280);
#227=AXIS2_PLACEMENT_3D('',#344,#281,#282);
#228=AXIS2_PLACEMENT_3D('',#345,#283,#284);
#229=AXIS2_PLACEMENT_3D('',#346,#285,#286);
#230=AXIS2_PLACEMENT_3D('',#347,#287,#288);
#231=AXIS2_PLACEMENT_3D('',#348,#289,#290);
#232=AXIS2_PLACEMENT_3D('',#349,#291,#292);
#233=DIRECTION('',(0.,0.,1.));
#234=DIRECTION('',(1.,0.,0.));
#235=DIRECTION('',(1.,0.,0.));
#236=DIRECTION('',(0.,0.,-1.));
#237=DIRECTION('',(0.,0.,1.));
#238=DIRECTION('',(-1.,0.,0.));
#239=DIRECTION('',(0.,0.,1.));
#240=DIRECTION('',(0.,0.,1.));
#241=DIRECTION('',(-1.,0.,0.));
#242=DIRECTION('',(0.,0.,1.));
#243=DIRECTION('',(-1.,0.,0.));
#244=DIRECTION('',(0.,0.,1.));
#245=DIRECTION('',(-1.,0.,0.));
#246=DIRECTION('',(0.,0.,1.));
#247=DIRECTION('',(-1.,0.,0.));
#248=DIRECTION('',(-1.,0.,0.));
#249=DIRECTION('',(-1.,0.,0.));
#250=DIRECTION('',(0.,0.,1.));
#251=DIRECTION('',(-1.,0.,0.));
#252=DIRECTION('',(0.,0.,1.));
#253=DIRECTION('',(-1.,0.,0.));
#254=DIRECTION('',(0.,0.,1.));
#255=DIRECTION('',(1.,0.,0.));
#256=DIRECTION('',(0.,0.,-1.));
#257=DIRECTION('',(-1.,0.,0.));
#258=DIRECTION('',(0.,0.,1.));
#259=DIRECTION('',(1.,0.,0.));
#260=DIRECTION('',(0.,0.,-1.));
#261=DIRECTION('',(-1.,0.,0.));
#262=DIRECTION('',(-1.,0.,0.));
#263=DIRECTION('',(1.,0.,0.));
#264=DIRECTION('',(0.,0.,-1.));
#265=DIRECTION('',(1.,0.,0.));
#266=DIRECTION('',(0.,0.,-1.));
#267=DIRECTION('',(-1.,0.,0.));
#268=DIRECTION('',(0.,0.,1.));
#269=DIRECTION('',(1.,0.,0.));
#270=DIRECTION('',(0.,0.,-1.));
#271=DIRECTION('',(-1.,0.,0.));
#272=DIRECTION('',(0.,0.,1.));
#273=DIRECTION('',(-1.,0.,0.));
#274=DIRECTION('',(0.,0.,1.));
#275=DIRECTION('',(-1.,0.,0.));
#276=DIRECTION('',(0.,0.,1.));
#277=DIRECTION('',(1.,0.,0.));
#278=DIRECTION('',(0.,0.,-1.));
#279=DIRECTION('',(1.,0.,0.));
#280=DIRECTION('',(0.,0.,-1.));
#281=DIRECTION('',(-1.,0.,0.));
#282=DIRECTION('',(0.,0.,1.));
#283=DIRECTION('',(0.,1.,0.));
#284=DIRECTION('',(0.,0.,1.));
#285=DIRECTION('',(0.,1.,0.));
#286=DIRECTION('',(1.,0.,0.));
#287=DIRECTION('',(0.,1.,0.));
#288=DIRECTION('',(1.,0.,0.));
#289=DIRECTION('',(0.,1.,0.));
#290=DIRECTION('',(0.,0.,1.));
#291=DIRECTION('',(0.,1.,0.));
#292=DIRECTION('',(0.,0.,1.));
#293=CARTESIAN_POINT('',(0.,0.,0.));
#294=CARTESIAN_POINT('',(2.60192004037497E-16,0.,15.));
#295=CARTESIAN_POINT('',(0.,-1.,9.1903040767968));
#296=CARTESIAN_POINT('',(0.,-1.,10.6531685427388));
#297=CARTESIAN_POINT('',(0.,-1.,14.9666295470958));
#298=CARTESIAN_POINT('',(5.42101086242752E-16,0.,0.));
#299=CARTESIAN_POINT('',(5.42101086242752E-16,1.,10.6531685427388));
#300=CARTESIAN_POINT('',(0.,1.,9.1903040767968));
#301=CARTESIAN_POINT('',(0.,1.,14.9666295470958));
#302=CARTESIAN_POINT('',(0.,0.,0.));
#303=CARTESIAN_POINT('',(0.800000000000002,0.,0.));
#304=CARTESIAN_POINT('',(0.728444402022634,0.,0.));
#305=CARTESIAN_POINT('',(0.728444402022634,0.,10.7));
#306=CARTESIAN_POINT('',(0.800000000000002,-1.,10.6531685427388));
#307=CARTESIAN_POINT('',(0.698058205241422,-1.,10.6531685427388));
#308=CARTESIAN_POINT('',(0.698058205241422,-1.,10.6531685427388));
#309=CARTESIAN_POINT('',(0.724863440797216,-0.333333333333333,10.7157477335206));
#310=CARTESIAN_POINT('',(0.724863440797215,0.333333333333334,10.7157477335206));
#311=CARTESIAN_POINT('',(0.698058205241421,1.,10.6531685427388));
#312=CARTESIAN_POINT('',(0.698058205241422,1.,10.6531685427388));
#313=CARTESIAN_POINT('',(0.800000000000002,1.,10.6531685427388));
#314=CARTESIAN_POINT('',(6.25,0.,0.));
#315=CARTESIAN_POINT('',(6.25,0.,0.));
#316=CARTESIAN_POINT('',(6.25,0.,9.60177232646735));
#317=CARTESIAN_POINT('',(6.25,0.,0.));
#318=CARTESIAN_POINT('',(5.10144751178275,0.,0.));
#319=CARTESIAN_POINT('',(5.10144751178275,0.,-13.8882285676538));
#320=CARTESIAN_POINT('',(0.800000000000002,0.,0.));
#321=CARTESIAN_POINT('',(3.65255877234915,0.,0.));
#322=CARTESIAN_POINT('',(3.65255877234915,0.,-15.));
#323=CARTESIAN_POINT('',(1.99399051352375,1.,14.9666295470958));
#324=CARTESIAN_POINT('',(2.00205108409449,0.333333333333334,15.0111730874145));
#325=CARTESIAN_POINT('',(2.00205108409449,-0.333333333333334,15.0111730874145));
#326=CARTESIAN_POINT('',(1.99399051352375,-1.,14.9666295470958));
#327=CARTESIAN_POINT('',(1.99399051352375,1.,14.9666295470958));
#328=CARTESIAN_POINT('',(1.99399051352375,-1.,14.9666295470958));
#329=CARTESIAN_POINT('',(0.800000000000002,-1.,14.9666295470958));
#330=CARTESIAN_POINT('',(0.800000000000002,1.,14.9666295470958));
#331=CARTESIAN_POINT('',(1.01407400337106,0.,0.));
#332=CARTESIAN_POINT('',(0.916382926179817,0.,0.));
#333=CARTESIAN_POINT('',(0.916382926179817,0.,-10.4315959713349));
#334=CARTESIAN_POINT('',(0.400000000000001,0.,0.));
#335=CARTESIAN_POINT('',(0.400000000000001,0.,9.01284554186392));
#336=CARTESIAN_POINT('',(0.400000000000002,0.,9.01284554186392));
#337=CARTESIAN_POINT('',(0.400000000000003,0.,0.));
#338=CARTESIAN_POINT('',(0.400000000000003,0.,8.));
#339=CARTESIAN_POINT('',(0.800000000000002,0.,0.));
#340=CARTESIAN_POINT('',(0.800000000000003,0.,0.));
#341=CARTESIAN_POINT('',(0.800000000000003,0.,8.));
#342=CARTESIAN_POINT('',(0.800000000000002,0.,8.));
#343=CARTESIAN_POINT('',(3.65255877234915,0.,0.));
#344=CARTESIAN_POINT('',(0.728444402022634,0.,0.));
#345=CARTESIAN_POINT('',(-17.6863756242005,-1.,18.5279760179011));
#346=CARTESIAN_POINT('',(-17.6863756242005,1.,18.5279760179011));
#347=CARTESIAN_POINT('',(-17.6863756242005,-1.,18.5279760179011));
#348=CARTESIAN_POINT('',(-17.6863756242005,-1.,18.5279760179011));
#349=CARTESIAN_POINT('',(-17.6863756242005,1.,18.5279760179011));
#350=MECHANICAL_DESIGN_GEOMETRIC_PRESENTATION_REPRESENTATION('',(#195),
#351);
#351=(
GEOMETRIC_REPRESENTATION_CONTEXT(3)
GLOBAL_UNCERTAINTY_ASSIGNED_CONTEXT((#352))
GLOBAL_UNIT_ASSIGNED_CONTEXT((#355,#354,#353))
REPRESENTATION_CONTEXT('32.016005.640.316','TOP_LEVEL_ASSEMBLY_PART')
);
#352=UNCERTAINTY_MEASURE_WITH_UNIT(LENGTH_MEASURE(0.005),#355,
'DISTANCE_ACCURACY_VALUE','Maximum Tolerance applied to model');
#353=(
NAMED_UNIT(*)
SI_UNIT($,.STERADIAN.)
SOLID_ANGLE_UNIT()
);
#354=(
NAMED_UNIT(*)
PLANE_ANGLE_UNIT()
SI_UNIT($,.RADIAN.)
);
#355=(
LENGTH_UNIT()
NAMED_UNIT(*)
SI_UNIT(.MILLI.,.METRE.)
);
#356=PRODUCT_DEFINITION_SHAPE('','',#357);
#357=PRODUCT_DEFINITION('','',#359,#358);
#358=PRODUCT_DEFINITION_CONTEXT('',#365,'design');
#359=PRODUCT_DEFINITION_FORMATION_WITH_SPECIFIED_SOURCE('','',#361,
 .NOT_KNOWN.);
#360=PRODUCT_RELATED_PRODUCT_CATEGORY('','',(#361));
#361=PRODUCT('32.016005.640.316','32.016005.640.316',
'32.016005.640.316',(#363));
#362=PRODUCT_CATEGORY('','');
#363=PRODUCT_CONTEXT('',#365,'mechanical');
#364=APPLICATION_PROTOCOL_DEFINITION('international standard',
'automotive_design',2010,#365);
#365=APPLICATION_CONTEXT(
'core data for automotive mechanical design processes');
ENDSEC;
END-ISO-10303-21;
