ISO-10303-21;
HEADER;
/* Generated by software containing ST-Developer
 * from STEP Tools, Inc. (www.steptools.com) 
 */
/* OPTION: strings as raw bytes, not using required /X/ escapes */

FILE_DESCRIPTION(
/* description */ (''),
/* implementation_level */ '2;1');

FILE_NAME(
/* name */ '32.016007.125.716',
/* time_stamp */ '2019-04-15T17:01:07+02:00',
/* author */ ('Murat Coskun Bicak'),
/* organization */ ('Evac AG'),
/* preprocessor_version */ 'ST-DEVELOPER v16.7',
/* originating_system */ 'DEX',
/* authorisation */ $);

FILE_SCHEMA (('AUTOMOTIVE_DESIGN {1 0 10303 214 3 1 1}'));
ENDSEC;

DATA;
#10=PROPERTY_DEFINITION_REPRESENTATION(#14,#12);
#11=PROPERTY_DEFINITION_REPRESENTATION(#15,#13);
#12=REPRESENTATION('',(#16),#123);
#13=REPRESENTATION('',(#17),#123);
#14=PROPERTY_DEFINITION('pmi validation property','',#128);
#15=PROPERTY_DEFINITION('pmi validation property','',#128);
#16=VALUE_REPRESENTATION_ITEM('number of annotations',COUNT_MEASURE(0.));
#17=VALUE_REPRESENTATION_ITEM('number of views',COUNT_MEASURE(0.));
#18=SHAPE_REPRESENTATION_RELATIONSHIP('','',#77,#19);
#19=ADVANCED_BREP_SHAPE_REPRESENTATION('',(#75),#123);
#20=TOROIDAL_SURFACE('',#87,13.5,1.5);
#21=CONICAL_SURFACE('',#83,15.,1.30899693899575);
#22=CYLINDRICAL_SURFACE('',#81,15.);
#23=ORIENTED_EDGE('',*,*,#31,.T.);
#24=ORIENTED_EDGE('',*,*,#32,.T.);
#25=ORIENTED_EDGE('',*,*,#31,.F.);
#26=ORIENTED_EDGE('',*,*,#33,.T.);
#27=ORIENTED_EDGE('',*,*,#34,.T.);
#28=ORIENTED_EDGE('',*,*,#34,.F.);
#29=ORIENTED_EDGE('',*,*,#33,.F.);
#30=ORIENTED_EDGE('',*,*,#32,.F.);
#31=EDGE_CURVE('',#35,#35,#39,.T.);
#32=EDGE_CURVE('',#36,#36,#40,.F.);
#33=EDGE_CURVE('',#37,#37,#41,.T.);
#34=EDGE_CURVE('',#38,#38,#42,.T.);
#35=VERTEX_POINT('',#111);
#36=VERTEX_POINT('',#114);
#37=VERTEX_POINT('',#117);
#38=VERTEX_POINT('',#119);
#39=CIRCLE('',#80,15.);
#40=CIRCLE('',#82,15.);
#41=CIRCLE('',#84,13.8882285676538);
#42=CIRCLE('',#85,7.54914438230445);
#43=EDGE_LOOP('',(#23));
#44=EDGE_LOOP('',(#24));
#45=EDGE_LOOP('',(#25));
#46=EDGE_LOOP('',(#26));
#47=EDGE_LOOP('',(#27));
#48=EDGE_LOOP('',(#28));
#49=EDGE_LOOP('',(#29));
#50=EDGE_LOOP('',(#30));
#51=FACE_BOUND('',#43,.T.);
#52=FACE_BOUND('',#44,.T.);
#53=FACE_BOUND('',#45,.T.);
#54=FACE_BOUND('',#46,.T.);
#55=FACE_BOUND('',#47,.T.);
#56=FACE_BOUND('',#48,.T.);
#57=FACE_BOUND('',#49,.T.);
#58=FACE_BOUND('',#50,.T.);
#59=PLANE('',#79);
#60=PLANE('',#86);
#61=ADVANCED_FACE('',(#51),#59,.T.);
#62=ADVANCED_FACE('',(#52,#53),#22,.T.);
#63=ADVANCED_FACE('',(#54,#55),#21,.T.);
#64=ADVANCED_FACE('',(#56),#60,.T.);
#65=ADVANCED_FACE('',(#57,#58),#20,.T.);
#66=CLOSED_SHELL('',(#61,#62,#63,#64,#65));
#67=STYLED_ITEM('',(#68),#75);
#68=PRESENTATION_STYLE_ASSIGNMENT((#69));
#69=SURFACE_STYLE_USAGE(.BOTH.,#70);
#70=SURFACE_SIDE_STYLE('',(#71));
#71=SURFACE_STYLE_FILL_AREA(#72);
#72=FILL_AREA_STYLE('',(#73));
#73=FILL_AREA_STYLE_COLOUR('',#74);
#74=COLOUR_RGB('',0.506983280181885,0.531564235687256,0.550000011920929);
#75=MANIFOLD_SOLID_BREP('',#66);
#76=SHAPE_DEFINITION_REPRESENTATION(#128,#77);
#77=SHAPE_REPRESENTATION('32.016007.125.716',(#78),#123);
#78=AXIS2_PLACEMENT_3D('',#108,#88,#89);
#79=AXIS2_PLACEMENT_3D('',#109,#90,#91);
#80=AXIS2_PLACEMENT_3D('',#110,#92,#93);
#81=AXIS2_PLACEMENT_3D('',#112,#94,#95);
#82=AXIS2_PLACEMENT_3D('',#113,#96,#97);
#83=AXIS2_PLACEMENT_3D('',#115,#98,#99);
#84=AXIS2_PLACEMENT_3D('',#116,#100,#101);
#85=AXIS2_PLACEMENT_3D('',#118,#102,#103);
#86=AXIS2_PLACEMENT_3D('',#120,#104,#105);
#87=AXIS2_PLACEMENT_3D('',#121,#106,#107);
#88=DIRECTION('',(0.,0.,1.));
#89=DIRECTION('',(1.,0.,0.));
#90=DIRECTION('',(-1.,0.,0.));
#91=DIRECTION('',(0.,0.,1.));
#92=DIRECTION('',(-1.,0.,0.));
#93=DIRECTION('',(0.,0.,1.));
#94=DIRECTION('',(-1.,0.,0.));
#95=DIRECTION('',(0.,0.,1.));
#96=DIRECTION('',(1.,0.,0.));
#97=DIRECTION('',(0.,0.,-1.));
#98=DIRECTION('',(-1.,0.,0.));
#99=DIRECTION('',(0.,0.,1.));
#100=DIRECTION('',(1.,0.,0.));
#101=DIRECTION('',(0.,0.,-1.));
#102=DIRECTION('',(-1.,0.,0.));
#103=DIRECTION('',(0.,0.,1.));
#104=DIRECTION('',(1.,0.,0.));
#105=DIRECTION('',(0.,0.,-1.));
#106=DIRECTION('',(1.,0.,0.));
#107=DIRECTION('',(0.,0.,-1.));
#108=CARTESIAN_POINT('',(0.,0.,0.));
#109=CARTESIAN_POINT('',(-1.83697019872103E-15,0.,0.));
#110=CARTESIAN_POINT('',(-3.46944695195361E-15,0.,0.));
#111=CARTESIAN_POINT('',(-3.46944695195361E-15,0.,15.));
#112=CARTESIAN_POINT('',(6.,0.,0.));
#113=CARTESIAN_POINT('',(2.85255877234914,0.,0.));
#114=CARTESIAN_POINT('',(2.85255877234914,0.,-15.));
#115=CARTESIAN_POINT('',(4.00354925431758,0.,0.));
#116=CARTESIAN_POINT('',(4.30144751178274,0.,0.));
#117=CARTESIAN_POINT('',(4.30144751178274,0.,-13.8882285676538));
#118=CARTESIAN_POINT('',(6.,0.,0.));
#119=CARTESIAN_POINT('',(6.,0.,7.54914438230445));
#120=CARTESIAN_POINT('',(6.,0.,7.54914438230445));
#121=CARTESIAN_POINT('',(2.85255877234914,0.,0.));
#122=MECHANICAL_DESIGN_GEOMETRIC_PRESENTATION_REPRESENTATION('',(#67),#123);
#123=(
GEOMETRIC_REPRESENTATION_CONTEXT(3)
GLOBAL_UNCERTAINTY_ASSIGNED_CONTEXT((#124))
GLOBAL_UNIT_ASSIGNED_CONTEXT((#127,#126,#125))
REPRESENTATION_CONTEXT('32.016007.125.716','TOP_LEVEL_ASSEMBLY_PART')
);
#124=UNCERTAINTY_MEASURE_WITH_UNIT(LENGTH_MEASURE(0.005),#127,
'DISTANCE_ACCURACY_VALUE','Maximum Tolerance applied to model');
#125=(
NAMED_UNIT(*)
SI_UNIT($,.STERADIAN.)
SOLID_ANGLE_UNIT()
);
#126=(
NAMED_UNIT(*)
PLANE_ANGLE_UNIT()
SI_UNIT($,.RADIAN.)
);
#127=(
LENGTH_UNIT()
NAMED_UNIT(*)
SI_UNIT(.MILLI.,.METRE.)
);
#128=PRODUCT_DEFINITION_SHAPE('','',#129);
#129=PRODUCT_DEFINITION('','',#131,#130);
#130=PRODUCT_DEFINITION_CONTEXT('',#137,'design');
#131=PRODUCT_DEFINITION_FORMATION_WITH_SPECIFIED_SOURCE('','',#133,
 .NOT_KNOWN.);
#132=PRODUCT_RELATED_PRODUCT_CATEGORY('','',(#133));
#133=PRODUCT('32.016007.125.716','32.016007.125.716',
'32.016007.125.716',(#135));
#134=PRODUCT_CATEGORY('','');
#135=PRODUCT_CONTEXT('',#137,'mechanical');
#136=APPLICATION_PROTOCOL_DEFINITION('international standard',
'automotive_design',2010,#137);
#137=APPLICATION_CONTEXT(
'core data for automotive mechanical design processes');
ENDSEC;
END-ISO-10303-21;
