ISO-10303-21;
HEADER;
/* Generated by software containing ST-Developer
 * from STEP Tools, Inc. (www.steptools.com) 
 */
/* OPTION: strings as raw bytes, not using required /X/ escapes */

FILE_DESCRIPTION(
/* description */ (''),
/* implementation_level */ '2;1');

FILE_NAME(
/* name */ '32.050005.640.350',
/* time_stamp */ '2019-02-28T09:40:42+01:00',
/* author */ ('Murat Coskun Bicak'),
/* organization */ ('Evac AG'),
/* preprocessor_version */ 'ST-DEVELOPER v16.7',
/* originating_system */ 'DEX',
/* authorisation */ $);

FILE_SCHEMA (('AUTOMOTIVE_DESIGN {1 0 10303 214 3 1 1}'));
ENDSEC;

DATA;
#10=PROPERTY_DEFINITION_REPRESENTATION(#14,#12);
#11=PROPERTY_DEFINITION_REPRESENTATION(#15,#13);
#12=REPRESENTATION('',(#16),#400);
#13=REPRESENTATION('',(#17),#400);
#14=PROPERTY_DEFINITION('pmi validation property','',#405);
#15=PROPERTY_DEFINITION('pmi validation property','',#405);
#16=VALUE_REPRESENTATION_ITEM('number of annotations',COUNT_MEASURE(0.));
#17=VALUE_REPRESENTATION_ITEM('number of views',COUNT_MEASURE(0.));
#18=SHAPE_REPRESENTATION_RELATIONSHIP('','',#233,#19);
#19=ADVANCED_BREP_SHAPE_REPRESENTATION('',(#231),#400);
#20=CONICAL_SURFACE('',#244,32.1017723264673,1.30899693899575);
#21=CONICAL_SURFACE('',#249,30.9,1.22173047639603);
#22=B_SPLINE_CURVE_WITH_KNOTS('',3,(#349,#350,#351,#352),.UNSPECIFIED.,
 .F.,.F.,(4,4),(0.000895136882351808,0.00116328858311407),.UNSPECIFIED.);
#23=B_SPLINE_CURVE_WITH_KNOTS('',3,(#354,#355,#356,#357),.UNSPECIFIED.,
 .F.,.F.,(4,4),(2.00061948703408E-7,0.0020004641538699),.UNSPECIFIED.);
#24=B_SPLINE_CURVE_WITH_KNOTS('',3,(#359,#360,#361,#362),.UNSPECIFIED.,
 .F.,.F.,(4,4),(0.000895136882351808,0.0011632885831132),.UNSPECIFIED.);
#25=TOROIDAL_SURFACE('',#240,30.5,0.4);
#26=TOROIDAL_SURFACE('',#256,36.,1.5);
#27=CYLINDRICAL_SURFACE('',#238,30.9);
#28=CYLINDRICAL_SURFACE('',#246,37.5);
#29=CYLINDRICAL_SURFACE('',#253,25.);
#30=CYLINDRICAL_SURFACE('',#258,20.);
#31=CIRCLE('',#236,30.9);
#32=CIRCLE('',#237,37.5);
#33=CIRCLE('',#239,30.9);
#34=CIRCLE('',#241,30.3631919426697);
#35=CIRCLE('',#243,32.1017723264673);
#36=CIRCLE('',#245,36.3882285676538);
#37=CIRCLE('',#247,37.5);
#38=CIRCLE('',#248,37.5);
#39=CIRCLE('',#250,28.2044196676286);
#40=CIRCLE('',#252,25.);
#41=CIRCLE('',#254,25.);
#42=CIRCLE('',#259,20.);
#43=CIRCLE('',#260,20.);
#44=ORIENTED_EDGE('',*,*,#94,.F.);
#45=ORIENTED_EDGE('',*,*,#95,.F.);
#46=ORIENTED_EDGE('',*,*,#96,.T.);
#47=ORIENTED_EDGE('',*,*,#97,.T.);
#48=ORIENTED_EDGE('',*,*,#98,.F.);
#49=ORIENTED_EDGE('',*,*,#99,.T.);
#50=ORIENTED_EDGE('',*,*,#100,.T.);
#51=ORIENTED_EDGE('',*,*,#95,.T.);
#52=ORIENTED_EDGE('',*,*,#101,.F.);
#53=ORIENTED_EDGE('',*,*,#102,.F.);
#54=ORIENTED_EDGE('',*,*,#103,.T.);
#55=ORIENTED_EDGE('',*,*,#104,.T.);
#56=ORIENTED_EDGE('',*,*,#99,.F.);
#57=ORIENTED_EDGE('',*,*,#105,.F.);
#58=ORIENTED_EDGE('',*,*,#106,.T.);
#59=ORIENTED_EDGE('',*,*,#105,.T.);
#60=ORIENTED_EDGE('',*,*,#107,.T.);
#61=ORIENTED_EDGE('',*,*,#108,.T.);
#62=ORIENTED_EDGE('',*,*,#109,.F.);
#63=ORIENTED_EDGE('',*,*,#97,.F.);
#64=ORIENTED_EDGE('',*,*,#110,.T.);
#65=ORIENTED_EDGE('',*,*,#101,.T.);
#66=ORIENTED_EDGE('',*,*,#111,.F.);
#67=ORIENTED_EDGE('',*,*,#112,.F.);
#68=ORIENTED_EDGE('',*,*,#111,.T.);
#69=ORIENTED_EDGE('',*,*,#113,.F.);
#70=ORIENTED_EDGE('',*,*,#112,.T.);
#71=ORIENTED_EDGE('',*,*,#113,.T.);
#72=ORIENTED_EDGE('',*,*,#106,.F.);
#73=ORIENTED_EDGE('',*,*,#107,.F.);
#74=ORIENTED_EDGE('',*,*,#114,.T.);
#75=ORIENTED_EDGE('',*,*,#115,.F.);
#76=ORIENTED_EDGE('',*,*,#116,.F.);
#77=ORIENTED_EDGE('',*,*,#108,.F.);
#78=ORIENTED_EDGE('',*,*,#117,.F.);
#79=ORIENTED_EDGE('',*,*,#115,.T.);
#80=ORIENTED_EDGE('',*,*,#118,.T.);
#81=ORIENTED_EDGE('',*,*,#103,.F.);
#82=ORIENTED_EDGE('',*,*,#109,.T.);
#83=ORIENTED_EDGE('',*,*,#116,.T.);
#84=ORIENTED_EDGE('',*,*,#117,.T.);
#85=ORIENTED_EDGE('',*,*,#102,.T.);
#86=ORIENTED_EDGE('',*,*,#98,.T.);
#87=ORIENTED_EDGE('',*,*,#94,.T.);
#88=ORIENTED_EDGE('',*,*,#96,.F.);
#89=ORIENTED_EDGE('',*,*,#100,.F.);
#90=ORIENTED_EDGE('',*,*,#104,.F.);
#91=ORIENTED_EDGE('',*,*,#118,.F.);
#92=ORIENTED_EDGE('',*,*,#114,.F.);
#93=ORIENTED_EDGE('',*,*,#110,.F.);
#94=EDGE_CURVE('',#119,#120,#138,.T.);
#95=EDGE_CURVE('',#121,#119,#31,.T.);
#96=EDGE_CURVE('',#121,#122,#139,.T.);
#97=EDGE_CURVE('',#122,#120,#32,.T.);
#98=EDGE_CURVE('',#123,#119,#140,.T.);
#99=EDGE_CURVE('',#123,#124,#33,.F.);
#100=EDGE_CURVE('',#124,#121,#141,.T.);
#101=EDGE_CURVE('',#125,#125,#34,.F.);
#102=EDGE_CURVE('',#126,#123,#22,.T.);
#103=EDGE_CURVE('',#126,#127,#23,.T.);
#104=EDGE_CURVE('',#127,#124,#24,.T.);
#105=EDGE_CURVE('',#128,#128,#35,.T.);
#106=EDGE_CURVE('',#129,#129,#36,.T.);
#107=EDGE_CURVE('',#130,#130,#37,.F.);
#108=EDGE_CURVE('',#131,#132,#38,.T.);
#109=EDGE_CURVE('',#120,#132,#142,.F.);
#110=EDGE_CURVE('',#122,#131,#143,.F.);
#111=EDGE_CURVE('',#133,#133,#39,.T.);
#112=EDGE_CURVE('',#134,#134,#40,.T.);
#113=EDGE_CURVE('',#135,#135,#41,.T.);
#114=EDGE_CURVE('',#131,#136,#144,.T.);
#115=EDGE_CURVE('',#137,#136,#145,.T.);
#116=EDGE_CURVE('',#132,#137,#146,.T.);
#117=EDGE_CURVE('',#137,#126,#42,.T.);
#118=EDGE_CURVE('',#136,#127,#43,.T.);
#119=VERTEX_POINT('',#333);
#120=VERTEX_POINT('',#334);
#121=VERTEX_POINT('',#336);
#122=VERTEX_POINT('',#338);
#123=VERTEX_POINT('',#342);
#124=VERTEX_POINT('',#344);
#125=VERTEX_POINT('',#348);
#126=VERTEX_POINT('',#353);
#127=VERTEX_POINT('',#358);
#128=VERTEX_POINT('',#365);
#129=VERTEX_POINT('',#368);
#130=VERTEX_POINT('',#371);
#131=VERTEX_POINT('',#373);
#132=VERTEX_POINT('',#374);
#133=VERTEX_POINT('',#379);
#134=VERTEX_POINT('',#382);
#135=VERTEX_POINT('',#385);
#136=VERTEX_POINT('',#390);
#137=VERTEX_POINT('',#392);
#138=LINE('',#332,#147);
#139=LINE('',#337,#148);
#140=LINE('',#341,#149);
#141=LINE('',#345,#150);
#142=LINE('',#375,#151);
#143=LINE('',#376,#152);
#144=LINE('',#389,#153);
#145=LINE('',#391,#154);
#146=LINE('',#393,#155);
#147=VECTOR('',#267,1000.);
#148=VECTOR('',#270,1000.);
#149=VECTOR('',#275,1000.);
#150=VECTOR('',#278,1000.);
#151=VECTOR('',#297,1000.);
#152=VECTOR('',#298,1000.);
#153=VECTOR('',#317,1000.);
#154=VECTOR('',#318,1000.);
#155=VECTOR('',#319,1000.);
#156=EDGE_LOOP('',(#44,#45,#46,#47));
#157=EDGE_LOOP('',(#48,#49,#50,#51));
#158=EDGE_LOOP('',(#52));
#159=EDGE_LOOP('',(#53,#54,#55,#56));
#160=EDGE_LOOP('',(#57));
#161=EDGE_LOOP('',(#58));
#162=EDGE_LOOP('',(#59));
#163=EDGE_LOOP('',(#60));
#164=EDGE_LOOP('',(#61,#62,#63,#64));
#165=EDGE_LOOP('',(#65));
#166=EDGE_LOOP('',(#66));
#167=EDGE_LOOP('',(#67));
#168=EDGE_LOOP('',(#68));
#169=EDGE_LOOP('',(#69));
#170=EDGE_LOOP('',(#70));
#171=EDGE_LOOP('',(#71));
#172=EDGE_LOOP('',(#72));
#173=EDGE_LOOP('',(#73));
#174=EDGE_LOOP('',(#74,#75,#76,#77));
#175=EDGE_LOOP('',(#78,#79,#80,#81));
#176=EDGE_LOOP('',(#82,#83,#84,#85,#86,#87));
#177=EDGE_LOOP('',(#88,#89,#90,#91,#92,#93));
#178=FACE_BOUND('',#156,.T.);
#179=FACE_BOUND('',#157,.T.);
#180=FACE_BOUND('',#158,.T.);
#181=FACE_BOUND('',#159,.T.);
#182=FACE_BOUND('',#160,.T.);
#183=FACE_BOUND('',#161,.T.);
#184=FACE_BOUND('',#162,.T.);
#185=FACE_BOUND('',#163,.T.);
#186=FACE_BOUND('',#164,.T.);
#187=FACE_BOUND('',#165,.T.);
#188=FACE_BOUND('',#166,.T.);
#189=FACE_BOUND('',#167,.T.);
#190=FACE_BOUND('',#168,.T.);
#191=FACE_BOUND('',#169,.T.);
#192=FACE_BOUND('',#170,.T.);
#193=FACE_BOUND('',#171,.T.);
#194=FACE_BOUND('',#172,.T.);
#195=FACE_BOUND('',#173,.T.);
#196=FACE_BOUND('',#174,.T.);
#197=FACE_BOUND('',#175,.T.);
#198=FACE_BOUND('',#176,.T.);
#199=FACE_BOUND('',#177,.T.);
#200=PLANE('',#235);
#201=PLANE('',#242);
#202=PLANE('',#251);
#203=PLANE('',#255);
#204=PLANE('',#257);
#205=PLANE('',#261);
#206=PLANE('',#262);
#207=ADVANCED_FACE('',(#178),#200,.F.);
#208=ADVANCED_FACE('',(#179),#27,.F.);
#209=ADVANCED_FACE('',(#180,#181),#25,.F.);
#210=ADVANCED_FACE('',(#182),#201,.F.);
#211=ADVANCED_FACE('',(#183,#184),#20,.T.);
#212=ADVANCED_FACE('',(#185,#186),#28,.T.);
#213=ADVANCED_FACE('',(#187,#188),#21,.T.);
#214=ADVANCED_FACE('',(#189,#190),#202,.F.);
#215=ADVANCED_FACE('',(#191,#192),#29,.F.);
#216=ADVANCED_FACE('',(#193),#203,.F.);
#217=ADVANCED_FACE('',(#194,#195),#26,.T.);
#218=ADVANCED_FACE('',(#196),#204,.F.);
#219=ADVANCED_FACE('',(#197),#30,.F.);
#220=ADVANCED_FACE('',(#198),#205,.T.);
#221=ADVANCED_FACE('',(#199),#206,.F.);
#222=CLOSED_SHELL('',(#207,#208,#209,#210,#211,#212,#213,#214,#215,#216,
#217,#218,#219,#220,#221));
#223=STYLED_ITEM('',(#224),#231);
#224=PRESENTATION_STYLE_ASSIGNMENT((#225));
#225=SURFACE_STYLE_USAGE(.BOTH.,#226);
#226=SURFACE_SIDE_STYLE('',(#227));
#227=SURFACE_STYLE_FILL_AREA(#228);
#228=FILL_AREA_STYLE('',(#229));
#229=FILL_AREA_STYLE_COLOUR('',#230);
#230=COLOUR_RGB('',0.506983280181885,0.531564235687256,0.550000011920929);
#231=MANIFOLD_SOLID_BREP('',#222);
#232=SHAPE_DEFINITION_REPRESENTATION(#405,#233);
#233=SHAPE_REPRESENTATION('32.050005.640.350',(#234),#400);
#234=AXIS2_PLACEMENT_3D('',#330,#263,#264);
#235=AXIS2_PLACEMENT_3D('',#331,#265,#266);
#236=AXIS2_PLACEMENT_3D('',#335,#268,#269);
#237=AXIS2_PLACEMENT_3D('',#339,#271,#272);
#238=AXIS2_PLACEMENT_3D('',#340,#273,#274);
#239=AXIS2_PLACEMENT_3D('',#343,#276,#277);
#240=AXIS2_PLACEMENT_3D('',#346,#279,#280);
#241=AXIS2_PLACEMENT_3D('',#347,#281,#282);
#242=AXIS2_PLACEMENT_3D('',#363,#283,#284);
#243=AXIS2_PLACEMENT_3D('',#364,#285,#286);
#244=AXIS2_PLACEMENT_3D('',#366,#287,#288);
#245=AXIS2_PLACEMENT_3D('',#367,#289,#290);
#246=AXIS2_PLACEMENT_3D('',#369,#291,#292);
#247=AXIS2_PLACEMENT_3D('',#370,#293,#294);
#248=AXIS2_PLACEMENT_3D('',#372,#295,#296);
#249=AXIS2_PLACEMENT_3D('',#377,#299,#300);
#250=AXIS2_PLACEMENT_3D('',#378,#301,#302);
#251=AXIS2_PLACEMENT_3D('',#380,#303,#304);
#252=AXIS2_PLACEMENT_3D('',#381,#305,#306);
#253=AXIS2_PLACEMENT_3D('',#383,#307,#308);
#254=AXIS2_PLACEMENT_3D('',#384,#309,#310);
#255=AXIS2_PLACEMENT_3D('',#386,#311,#312);
#256=AXIS2_PLACEMENT_3D('',#387,#313,#314);
#257=AXIS2_PLACEMENT_3D('',#388,#315,#316);
#258=AXIS2_PLACEMENT_3D('',#394,#320,#321);
#259=AXIS2_PLACEMENT_3D('',#395,#322,#323);
#260=AXIS2_PLACEMENT_3D('',#396,#324,#325);
#261=AXIS2_PLACEMENT_3D('',#397,#326,#327);
#262=AXIS2_PLACEMENT_3D('',#398,#328,#329);
#263=DIRECTION('',(0.,0.,1.));
#264=DIRECTION('',(1.,0.,0.));
#265=DIRECTION('',(1.,0.,0.));
#266=DIRECTION('',(0.,0.,-1.));
#267=DIRECTION('',(-9.26676084008872E-17,0.,1.));
#268=DIRECTION('',(-1.,0.,0.));
#269=DIRECTION('',(0.,0.,1.));
#270=DIRECTION('',(-9.26676084008872E-17,0.,1.));
#271=DIRECTION('',(-1.,0.,0.));
#272=DIRECTION('',(0.,0.,1.));
#273=DIRECTION('',(-1.,0.,0.));
#274=DIRECTION('',(0.,0.,1.));
#275=DIRECTION('',(-1.,0.,0.));
#276=DIRECTION('',(-1.,0.,0.));
#277=DIRECTION('',(0.,0.,1.));
#278=DIRECTION('',(-1.,0.,0.));
#279=DIRECTION('',(-1.,0.,0.));
#280=DIRECTION('',(0.,0.,1.));
#281=DIRECTION('',(1.,0.,0.));
#282=DIRECTION('',(0.,0.,-1.));
#283=DIRECTION('',(-1.,0.,0.));
#284=DIRECTION('',(0.,0.,1.));
#285=DIRECTION('',(-1.,0.,0.));
#286=DIRECTION('',(0.,0.,1.));
#287=DIRECTION('',(-1.,0.,0.));
#288=DIRECTION('',(0.,0.,1.));
#289=DIRECTION('',(1.,0.,0.));
#290=DIRECTION('',(0.,0.,-1.));
#291=DIRECTION('',(-1.,0.,0.));
#292=DIRECTION('',(0.,0.,1.));
#293=DIRECTION('',(1.,0.,0.));
#294=DIRECTION('',(0.,0.,-1.));
#295=DIRECTION('',(1.,0.,-2.7015323462573E-15));
#296=DIRECTION('',(-2.7015323462573E-15,0.,-1.));
#297=DIRECTION('',(-1.,0.,0.));
#298=DIRECTION('',(-1.,0.,0.));
#299=DIRECTION('',(1.,0.,0.));
#300=DIRECTION('',(0.,0.,-1.));
#301=DIRECTION('',(-1.,0.,0.));
#302=DIRECTION('',(0.,0.,1.));
#303=DIRECTION('',(1.,0.,0.));
#304=DIRECTION('',(0.,0.,-1.));
#305=DIRECTION('',(-1.,0.,0.));
#306=DIRECTION('',(0.,0.,1.));
#307=DIRECTION('',(-1.,0.,0.));
#308=DIRECTION('',(0.,0.,1.));
#309=DIRECTION('',(-1.,0.,0.));
#310=DIRECTION('',(0.,0.,1.));
#311=DIRECTION('',(1.,0.,0.));
#312=DIRECTION('',(0.,0.,-1.));
#313=DIRECTION('',(1.,0.,0.));
#314=DIRECTION('',(0.,0.,-1.));
#315=DIRECTION('',(1.,0.,-2.7015323462573E-15));
#316=DIRECTION('',(-2.7015323462573E-15,0.,-1.));
#317=DIRECTION('',(-2.7015323462573E-15,0.,-1.));
#318=DIRECTION('',(0.,1.,0.));
#319=DIRECTION('',(-2.7015323462573E-15,0.,-1.));
#320=DIRECTION('',(0.,1.,0.));
#321=DIRECTION('',(0.,0.,1.));
#322=DIRECTION('',(0.,1.,0.));
#323=DIRECTION('',(1.,0.,0.));
#324=DIRECTION('',(0.,1.,0.));
#325=DIRECTION('',(1.,0.,0.));
#326=DIRECTION('',(0.,1.,0.));
#327=DIRECTION('',(0.,0.,1.));
#328=DIRECTION('',(0.,1.,0.));
#329=DIRECTION('',(0.,0.,1.));
#330=CARTESIAN_POINT('',(0.,0.,0.));
#331=CARTESIAN_POINT('',(-2.95474252755753E-17,0.,37.5));
#332=CARTESIAN_POINT('',(0.,-1.,28.1400763658847));
#333=CARTESIAN_POINT('',(-2.54255653861665E-16,-1.,30.8838145312395));
#334=CARTESIAN_POINT('',(-8.66125950141704E-16,-1.,37.4866642954531));
#335=CARTESIAN_POINT('',(7.58941520739853E-16,0.,0.));
#336=CARTESIAN_POINT('',(-2.54255653861665E-16,1.,30.8838145312395));
#337=CARTESIAN_POINT('',(0.,1.,28.1400763658847));
#338=CARTESIAN_POINT('',(-8.66125950141704E-16,1.,37.4866642954531));
#339=CARTESIAN_POINT('',(-8.67361737988404E-16,0.,0.));
#340=CARTESIAN_POINT('',(0.800000000000002,0.,0.));
#341=CARTESIAN_POINT('',(0.800000000000002,-1.,30.8838145312395));
#342=CARTESIAN_POINT('',(0.809851802359139,-1.,30.8838145312446));
#343=CARTESIAN_POINT('',(0.809851802359741,0.,0.));
#344=CARTESIAN_POINT('',(0.809851802359741,1.,30.8838145312395));
#345=CARTESIAN_POINT('',(0.800000000000002,1.,30.8838145312395));
#346=CARTESIAN_POINT('',(0.809851802359741,0.,0.));
#347=CARTESIAN_POINT('',(1.1857288506741,0.,0.));
#348=CARTESIAN_POINT('',(1.1857288506741,0.,-30.3631919426697));
#349=CARTESIAN_POINT('',(1.05934885742155,-1.,30.7964205386246));
#350=CARTESIAN_POINT('',(0.989395805991075,-1.,30.8522726803869));
#351=CARTESIAN_POINT('',(0.899361816836573,-1.,30.8838145312397));
#352=CARTESIAN_POINT('',(0.809851802358866,-1.,30.8838145312395));
#353=CARTESIAN_POINT('',(1.05934885742155,-1.,30.7964205386246));
#354=CARTESIAN_POINT('',(1.05934885742154,-1.,30.7964205386246));
#355=CARTESIAN_POINT('',(1.06483831276299,-0.333451731912264,30.8136813228062));
#356=CARTESIAN_POINT('',(1.06483831662551,0.333451262911355,30.8136813349513));
#357=CARTESIAN_POINT('',(1.05934885742154,1.,30.7964205386246));
#358=CARTESIAN_POINT('',(1.05934885742155,1.,30.7964205386246));
#359=CARTESIAN_POINT('',(1.05934885742155,1.,30.7964205386246));
#360=CARTESIAN_POINT('',(0.989395805991303,1.,30.8522726803867));
#361=CARTESIAN_POINT('',(0.899361816837146,1.,30.8838145312395));
#362=CARTESIAN_POINT('',(0.809851802359742,1.,30.8838145312395));
#363=CARTESIAN_POINT('',(6.25,0.,0.));
#364=CARTESIAN_POINT('',(6.25,0.,0.));
#365=CARTESIAN_POINT('',(6.25,0.,32.1017723264673));
#366=CARTESIAN_POINT('',(6.25,0.,0.));
#367=CARTESIAN_POINT('',(5.10144751178275,0.,0.));
#368=CARTESIAN_POINT('',(5.10144751178275,0.,-36.3882285676538));
#369=CARTESIAN_POINT('',(0.800000000000002,0.,0.));
#370=CARTESIAN_POINT('',(3.65255877234915,0.,0.));
#371=CARTESIAN_POINT('',(3.65255877234915,0.,-37.5));
#372=CARTESIAN_POINT('',(1.9999999999999,0.,0.));
#373=CARTESIAN_POINT('',(2.,1.,37.4866642954531));
#374=CARTESIAN_POINT('',(2.,-1.,37.4866642954531));
#375=CARTESIAN_POINT('',(0.800000000000002,-1.,37.4866642954531));
#376=CARTESIAN_POINT('',(0.800000000000002,1.,37.4866642954531));
#377=CARTESIAN_POINT('',(1.38111100505659,0.,0.));
#378=CARTESIAN_POINT('',(0.400000000000001,0.,0.));
#379=CARTESIAN_POINT('',(0.400000000000001,0.,28.2044196676286));
#380=CARTESIAN_POINT('',(0.400000000000001,0.,28.2044196676286));
#381=CARTESIAN_POINT('',(0.400000000000002,0.,0.));
#382=CARTESIAN_POINT('',(0.400000000000002,0.,25.));
#383=CARTESIAN_POINT('',(0.800000000000002,0.,0.));
#384=CARTESIAN_POINT('',(0.800000000000001,0.,0.));
#385=CARTESIAN_POINT('',(0.800000000000001,0.,25.));
#386=CARTESIAN_POINT('',(0.800000000000002,0.,25.));
#387=CARTESIAN_POINT('',(3.65255877234915,0.,0.));
#388=CARTESIAN_POINT('',(2.,-1.,36.8578742529661));
#389=CARTESIAN_POINT('',(2.,1.,36.8578742529661));
#390=CARTESIAN_POINT('',(2.,1.,36.8578742529661));
#391=CARTESIAN_POINT('',(2.,-1.,36.8578742529661));
#392=CARTESIAN_POINT('',(2.,-1.,36.8578742529661));
#393=CARTESIAN_POINT('',(2.,-1.,36.8578742529661));
#394=CARTESIAN_POINT('',(-18.,-1.,36.8578742529661));
#395=CARTESIAN_POINT('',(-18.,-1.,36.8578742529661));
#396=CARTESIAN_POINT('',(-18.,1.,36.8578742529661));
#397=CARTESIAN_POINT('',(-18.,-1.,36.8578742529661));
#398=CARTESIAN_POINT('',(-18.,1.,36.8578742529661));
#399=MECHANICAL_DESIGN_GEOMETRIC_PRESENTATION_REPRESENTATION('',(#223),
#400);
#400=(
GEOMETRIC_REPRESENTATION_CONTEXT(3)
GLOBAL_UNCERTAINTY_ASSIGNED_CONTEXT((#401))
GLOBAL_UNIT_ASSIGNED_CONTEXT((#404,#403,#402))
REPRESENTATION_CONTEXT('32.050005.640.350','TOP_LEVEL_ASSEMBLY_PART')
);
#401=UNCERTAINTY_MEASURE_WITH_UNIT(LENGTH_MEASURE(0.005),#404,
'DISTANCE_ACCURACY_VALUE','Maximum Tolerance applied to model');
#402=(
NAMED_UNIT(*)
SI_UNIT($,.STERADIAN.)
SOLID_ANGLE_UNIT()
);
#403=(
NAMED_UNIT(*)
PLANE_ANGLE_UNIT()
SI_UNIT($,.RADIAN.)
);
#404=(
LENGTH_UNIT()
NAMED_UNIT(*)
SI_UNIT(.MILLI.,.METRE.)
);
#405=PRODUCT_DEFINITION_SHAPE('','',#406);
#406=PRODUCT_DEFINITION('','',#408,#407);
#407=PRODUCT_DEFINITION_CONTEXT('',#414,'design');
#408=PRODUCT_DEFINITION_FORMATION_WITH_SPECIFIED_SOURCE('','',#410,
 .NOT_KNOWN.);
#409=PRODUCT_RELATED_PRODUCT_CATEGORY('','',(#410));
#410=PRODUCT('32.050005.640.350','32.050005.640.350',
'32.050005.640.350',(#412));
#411=PRODUCT_CATEGORY('','');
#412=PRODUCT_CONTEXT('',#414,'mechanical');
#413=APPLICATION_PROTOCOL_DEFINITION('international standard',
'automotive_design',2010,#414);
#414=APPLICATION_CONTEXT(
'core data for automotive mechanical design processes');
ENDSEC;
END-ISO-10303-21;
