ISO-10303-21;
HEADER;
/* Generated by software containing ST-Developer
 * from STEP Tools, Inc. (www.steptools.com) 
 */
/* OPTION: strings as raw bytes, not using required /X/ escapes */

FILE_DESCRIPTION(
/* description */ (''),
/* implementation_level */ '2;1');

FILE_NAME(
/* name */ '32.063005.640.363',
/* time_stamp */ '2019-03-21T11:34:13+01:00',
/* author */ ('Murat Coskun Bicak'),
/* organization */ ('Evac AG'),
/* preprocessor_version */ 'ST-DEVELOPER v16.7',
/* originating_system */ 'DEX',
/* authorisation */ $);

FILE_SCHEMA (('AUTOMOTIVE_DESIGN {1 0 10303 214 3 1 1}'));
ENDSEC;

DATA;
#10=PROPERTY_DEFINITION_REPRESENTATION(#14,#12);
#11=PROPERTY_DEFINITION_REPRESENTATION(#15,#13);
#12=REPRESENTATION('',(#16),#367);
#13=REPRESENTATION('',(#17),#367);
#14=PROPERTY_DEFINITION('pmi validation property','',#372);
#15=PROPERTY_DEFINITION('pmi validation property','',#372);
#16=VALUE_REPRESENTATION_ITEM('number of annotations',COUNT_MEASURE(0.));
#17=VALUE_REPRESENTATION_ITEM('number of views',COUNT_MEASURE(0.));
#18=SHAPE_REPRESENTATION_RELATIONSHIP('','',#212,#19);
#19=ADVANCED_BREP_SHAPE_REPRESENTATION('',(#210),#367);
#20=CONICAL_SURFACE('',#223,38.1017723264674,1.30899693899575);
#21=CONICAL_SURFACE('',#227,41.25,1.22173047639603);
#22=B_SPLINE_CURVE_WITH_KNOTS('',3,(#319,#320,#321,#322),.UNSPECIFIED.,
 .F.,.F.,(4,4),(0.00096470362384169,0.00114064894017297),.UNSPECIFIED.);
#23=B_SPLINE_CURVE_WITH_KNOTS('',3,(#324,#325,#326,#327),.UNSPECIFIED.,
 .F.,.F.,(4,4),(2.00040385026726E-7,0.00200037200417938),.UNSPECIFIED.);
#24=B_SPLINE_CURVE_WITH_KNOTS('',3,(#329,#330,#331,#332),.UNSPECIFIED.,
 .F.,.F.,(4,4),(0.00096470362384169,0.00114064894017297),.UNSPECIFIED.);
#25=B_SPLINE_CURVE_WITH_KNOTS('',3,(#342,#343,#344,#345),.UNSPECIFIED.,
 .F.,.F.,(4,4),(0.,0.002),.UNSPECIFIED.);
#26=TOROIDAL_SURFACE('',#219,40.85,0.4);
#27=TOROIDAL_SURFACE('',#234,42.,1.5);
#28=CYLINDRICAL_SURFACE('',#217,41.25);
#29=CYLINDRICAL_SURFACE('',#225,43.5);
#30=CYLINDRICAL_SURFACE('',#231,35.);
#31=CYLINDRICAL_SURFACE('',#235,20.);
#32=CIRCLE('',#215,41.25);
#33=CIRCLE('',#216,43.5);
#34=CIRCLE('',#218,41.25);
#35=CIRCLE('',#220,40.7131919426697);
#36=CIRCLE('',#222,38.1017723264674);
#37=CIRCLE('',#224,42.3882285676538);
#38=CIRCLE('',#226,43.5);
#39=CIRCLE('',#228,38.6917935386013);
#40=CIRCLE('',#230,35.);
#41=CIRCLE('',#232,35.);
#42=CIRCLE('',#236,20.);
#43=CIRCLE('',#237,20.);
#44=ORIENTED_EDGE('',*,*,#88,.F.);
#45=ORIENTED_EDGE('',*,*,#89,.F.);
#46=ORIENTED_EDGE('',*,*,#90,.T.);
#47=ORIENTED_EDGE('',*,*,#91,.T.);
#48=ORIENTED_EDGE('',*,*,#92,.F.);
#49=ORIENTED_EDGE('',*,*,#93,.T.);
#50=ORIENTED_EDGE('',*,*,#94,.T.);
#51=ORIENTED_EDGE('',*,*,#89,.T.);
#52=ORIENTED_EDGE('',*,*,#95,.F.);
#53=ORIENTED_EDGE('',*,*,#96,.F.);
#54=ORIENTED_EDGE('',*,*,#97,.T.);
#55=ORIENTED_EDGE('',*,*,#98,.T.);
#56=ORIENTED_EDGE('',*,*,#93,.F.);
#57=ORIENTED_EDGE('',*,*,#99,.F.);
#58=ORIENTED_EDGE('',*,*,#100,.T.);
#59=ORIENTED_EDGE('',*,*,#99,.T.);
#60=ORIENTED_EDGE('',*,*,#101,.T.);
#61=ORIENTED_EDGE('',*,*,#102,.T.);
#62=ORIENTED_EDGE('',*,*,#103,.F.);
#63=ORIENTED_EDGE('',*,*,#91,.F.);
#64=ORIENTED_EDGE('',*,*,#104,.T.);
#65=ORIENTED_EDGE('',*,*,#95,.T.);
#66=ORIENTED_EDGE('',*,*,#105,.F.);
#67=ORIENTED_EDGE('',*,*,#106,.F.);
#68=ORIENTED_EDGE('',*,*,#105,.T.);
#69=ORIENTED_EDGE('',*,*,#107,.F.);
#70=ORIENTED_EDGE('',*,*,#106,.T.);
#71=ORIENTED_EDGE('',*,*,#107,.T.);
#72=ORIENTED_EDGE('',*,*,#100,.F.);
#73=ORIENTED_EDGE('',*,*,#101,.F.);
#74=ORIENTED_EDGE('',*,*,#108,.T.);
#75=ORIENTED_EDGE('',*,*,#97,.F.);
#76=ORIENTED_EDGE('',*,*,#109,.F.);
#77=ORIENTED_EDGE('',*,*,#102,.F.);
#78=ORIENTED_EDGE('',*,*,#103,.T.);
#79=ORIENTED_EDGE('',*,*,#109,.T.);
#80=ORIENTED_EDGE('',*,*,#96,.T.);
#81=ORIENTED_EDGE('',*,*,#92,.T.);
#82=ORIENTED_EDGE('',*,*,#88,.T.);
#83=ORIENTED_EDGE('',*,*,#90,.F.);
#84=ORIENTED_EDGE('',*,*,#94,.F.);
#85=ORIENTED_EDGE('',*,*,#98,.F.);
#86=ORIENTED_EDGE('',*,*,#108,.F.);
#87=ORIENTED_EDGE('',*,*,#104,.F.);
#88=EDGE_CURVE('',#110,#111,#127,.T.);
#89=EDGE_CURVE('',#112,#110,#32,.T.);
#90=EDGE_CURVE('',#112,#113,#128,.T.);
#91=EDGE_CURVE('',#113,#111,#33,.T.);
#92=EDGE_CURVE('',#114,#110,#129,.T.);
#93=EDGE_CURVE('',#114,#115,#34,.F.);
#94=EDGE_CURVE('',#115,#112,#130,.T.);
#95=EDGE_CURVE('',#116,#116,#35,.F.);
#96=EDGE_CURVE('',#117,#114,#22,.T.);
#97=EDGE_CURVE('',#117,#118,#23,.T.);
#98=EDGE_CURVE('',#118,#115,#24,.T.);
#99=EDGE_CURVE('',#119,#119,#36,.T.);
#100=EDGE_CURVE('',#120,#120,#37,.T.);
#101=EDGE_CURVE('',#121,#121,#38,.F.);
#102=EDGE_CURVE('',#122,#123,#25,.T.);
#103=EDGE_CURVE('',#111,#123,#131,.F.);
#104=EDGE_CURVE('',#113,#122,#132,.F.);
#105=EDGE_CURVE('',#124,#124,#39,.T.);
#106=EDGE_CURVE('',#125,#125,#40,.T.);
#107=EDGE_CURVE('',#126,#126,#41,.T.);
#108=EDGE_CURVE('',#122,#118,#42,.T.);
#109=EDGE_CURVE('',#123,#117,#43,.T.);
#110=VERTEX_POINT('',#303);
#111=VERTEX_POINT('',#304);
#112=VERTEX_POINT('',#306);
#113=VERTEX_POINT('',#308);
#114=VERTEX_POINT('',#312);
#115=VERTEX_POINT('',#314);
#116=VERTEX_POINT('',#318);
#117=VERTEX_POINT('',#323);
#118=VERTEX_POINT('',#328);
#119=VERTEX_POINT('',#335);
#120=VERTEX_POINT('',#338);
#121=VERTEX_POINT('',#341);
#122=VERTEX_POINT('',#346);
#123=VERTEX_POINT('',#347);
#124=VERTEX_POINT('',#352);
#125=VERTEX_POINT('',#355);
#126=VERTEX_POINT('',#358);
#127=LINE('',#302,#133);
#128=LINE('',#307,#134);
#129=LINE('',#311,#135);
#130=LINE('',#315,#136);
#131=LINE('',#348,#137);
#132=LINE('',#349,#138);
#133=VECTOR('',#244,1000.);
#134=VECTOR('',#247,1000.);
#135=VECTOR('',#252,1000.);
#136=VECTOR('',#255,1000.);
#137=VECTOR('',#272,1000.);
#138=VECTOR('',#273,1000.);
#139=EDGE_LOOP('',(#44,#45,#46,#47));
#140=EDGE_LOOP('',(#48,#49,#50,#51));
#141=EDGE_LOOP('',(#52));
#142=EDGE_LOOP('',(#53,#54,#55,#56));
#143=EDGE_LOOP('',(#57));
#144=EDGE_LOOP('',(#58));
#145=EDGE_LOOP('',(#59));
#146=EDGE_LOOP('',(#60));
#147=EDGE_LOOP('',(#61,#62,#63,#64));
#148=EDGE_LOOP('',(#65));
#149=EDGE_LOOP('',(#66));
#150=EDGE_LOOP('',(#67));
#151=EDGE_LOOP('',(#68));
#152=EDGE_LOOP('',(#69));
#153=EDGE_LOOP('',(#70));
#154=EDGE_LOOP('',(#71));
#155=EDGE_LOOP('',(#72));
#156=EDGE_LOOP('',(#73));
#157=EDGE_LOOP('',(#74,#75,#76,#77));
#158=EDGE_LOOP('',(#78,#79,#80,#81,#82));
#159=EDGE_LOOP('',(#83,#84,#85,#86,#87));
#160=FACE_BOUND('',#139,.T.);
#161=FACE_BOUND('',#140,.T.);
#162=FACE_BOUND('',#141,.T.);
#163=FACE_BOUND('',#142,.T.);
#164=FACE_BOUND('',#143,.T.);
#165=FACE_BOUND('',#144,.T.);
#166=FACE_BOUND('',#145,.T.);
#167=FACE_BOUND('',#146,.T.);
#168=FACE_BOUND('',#147,.T.);
#169=FACE_BOUND('',#148,.T.);
#170=FACE_BOUND('',#149,.T.);
#171=FACE_BOUND('',#150,.T.);
#172=FACE_BOUND('',#151,.T.);
#173=FACE_BOUND('',#152,.T.);
#174=FACE_BOUND('',#153,.T.);
#175=FACE_BOUND('',#154,.T.);
#176=FACE_BOUND('',#155,.T.);
#177=FACE_BOUND('',#156,.T.);
#178=FACE_BOUND('',#157,.T.);
#179=FACE_BOUND('',#158,.T.);
#180=FACE_BOUND('',#159,.T.);
#181=PLANE('',#214);
#182=PLANE('',#221);
#183=PLANE('',#229);
#184=PLANE('',#233);
#185=PLANE('',#238);
#186=PLANE('',#239);
#187=ADVANCED_FACE('',(#160),#181,.F.);
#188=ADVANCED_FACE('',(#161),#28,.F.);
#189=ADVANCED_FACE('',(#162,#163),#26,.F.);
#190=ADVANCED_FACE('',(#164),#182,.F.);
#191=ADVANCED_FACE('',(#165,#166),#20,.T.);
#192=ADVANCED_FACE('',(#167,#168),#29,.T.);
#193=ADVANCED_FACE('',(#169,#170),#21,.T.);
#194=ADVANCED_FACE('',(#171,#172),#183,.F.);
#195=ADVANCED_FACE('',(#173,#174),#30,.F.);
#196=ADVANCED_FACE('',(#175),#184,.F.);
#197=ADVANCED_FACE('',(#176,#177),#27,.T.);
#198=ADVANCED_FACE('',(#178),#31,.F.);
#199=ADVANCED_FACE('',(#179),#185,.T.);
#200=ADVANCED_FACE('',(#180),#186,.F.);
#201=CLOSED_SHELL('',(#187,#188,#189,#190,#191,#192,#193,#194,#195,#196,
#197,#198,#199,#200));
#202=STYLED_ITEM('',(#203),#210);
#203=PRESENTATION_STYLE_ASSIGNMENT((#204));
#204=SURFACE_STYLE_USAGE(.BOTH.,#205);
#205=SURFACE_SIDE_STYLE('',(#206));
#206=SURFACE_STYLE_FILL_AREA(#207);
#207=FILL_AREA_STYLE('',(#208));
#208=FILL_AREA_STYLE_COLOUR('',#209);
#209=COLOUR_RGB('',0.506983280181885,0.531564235687256,0.550000011920929);
#210=MANIFOLD_SOLID_BREP('',#201);
#211=SHAPE_DEFINITION_REPRESENTATION(#372,#212);
#212=SHAPE_REPRESENTATION('32.063005.640.363',(#213),#367);
#213=AXIS2_PLACEMENT_3D('',#300,#240,#241);
#214=AXIS2_PLACEMENT_3D('',#301,#242,#243);
#215=AXIS2_PLACEMENT_3D('',#305,#245,#246);
#216=AXIS2_PLACEMENT_3D('',#309,#248,#249);
#217=AXIS2_PLACEMENT_3D('',#310,#250,#251);
#218=AXIS2_PLACEMENT_3D('',#313,#253,#254);
#219=AXIS2_PLACEMENT_3D('',#316,#256,#257);
#220=AXIS2_PLACEMENT_3D('',#317,#258,#259);
#221=AXIS2_PLACEMENT_3D('',#333,#260,#261);
#222=AXIS2_PLACEMENT_3D('',#334,#262,#263);
#223=AXIS2_PLACEMENT_3D('',#336,#264,#265);
#224=AXIS2_PLACEMENT_3D('',#337,#266,#267);
#225=AXIS2_PLACEMENT_3D('',#339,#268,#269);
#226=AXIS2_PLACEMENT_3D('',#340,#270,#271);
#227=AXIS2_PLACEMENT_3D('',#350,#274,#275);
#228=AXIS2_PLACEMENT_3D('',#351,#276,#277);
#229=AXIS2_PLACEMENT_3D('',#353,#278,#279);
#230=AXIS2_PLACEMENT_3D('',#354,#280,#281);
#231=AXIS2_PLACEMENT_3D('',#356,#282,#283);
#232=AXIS2_PLACEMENT_3D('',#357,#284,#285);
#233=AXIS2_PLACEMENT_3D('',#359,#286,#287);
#234=AXIS2_PLACEMENT_3D('',#360,#288,#289);
#235=AXIS2_PLACEMENT_3D('',#361,#290,#291);
#236=AXIS2_PLACEMENT_3D('',#362,#292,#293);
#237=AXIS2_PLACEMENT_3D('',#363,#294,#295);
#238=AXIS2_PLACEMENT_3D('',#364,#296,#297);
#239=AXIS2_PLACEMENT_3D('',#365,#298,#299);
#240=DIRECTION('',(0.,0.,1.));
#241=DIRECTION('',(1.,0.,0.));
#242=DIRECTION('',(1.,0.,0.));
#243=DIRECTION('',(0.,0.,-1.));
#244=DIRECTION('',(-2.17006766246992E-16,0.,1.));
#245=DIRECTION('',(-1.,0.,0.));
#246=DIRECTION('',(0.,0.,1.));
#247=DIRECTION('',(-2.17006766246992E-16,0.,1.));
#248=DIRECTION('',(-1.,0.,0.));
#249=DIRECTION('',(0.,0.,1.));
#250=DIRECTION('',(-1.,0.,0.));
#251=DIRECTION('',(0.,0.,1.));
#252=DIRECTION('',(-1.,0.,0.));
#253=DIRECTION('',(-1.,0.,0.));
#254=DIRECTION('',(0.,0.,1.));
#255=DIRECTION('',(-1.,0.,0.));
#256=DIRECTION('',(-1.,0.,0.));
#257=DIRECTION('',(0.,0.,1.));
#258=DIRECTION('',(1.,0.,0.));
#259=DIRECTION('',(0.,0.,-1.));
#260=DIRECTION('',(-1.,0.,0.));
#261=DIRECTION('',(0.,0.,1.));
#262=DIRECTION('',(-1.,0.,0.));
#263=DIRECTION('',(0.,0.,1.));
#264=DIRECTION('',(-1.,0.,0.));
#265=DIRECTION('',(0.,0.,1.));
#266=DIRECTION('',(1.,0.,0.));
#267=DIRECTION('',(0.,0.,-1.));
#268=DIRECTION('',(-1.,0.,0.));
#269=DIRECTION('',(0.,0.,1.));
#270=DIRECTION('',(1.,0.,0.));
#271=DIRECTION('',(0.,0.,-1.));
#272=DIRECTION('',(-1.,0.,0.));
#273=DIRECTION('',(-1.,0.,0.));
#274=DIRECTION('',(1.,0.,0.));
#275=DIRECTION('',(0.,0.,-1.));
#276=DIRECTION('',(-1.,0.,0.));
#277=DIRECTION('',(0.,0.,1.));
#278=DIRECTION('',(1.,0.,0.));
#279=DIRECTION('',(0.,0.,-1.));
#280=DIRECTION('',(-1.,0.,0.));
#281=DIRECTION('',(0.,0.,1.));
#282=DIRECTION('',(-1.,0.,0.));
#283=DIRECTION('',(0.,0.,1.));
#284=DIRECTION('',(-1.,0.,0.));
#285=DIRECTION('',(0.,0.,1.));
#286=DIRECTION('',(1.,0.,0.));
#287=DIRECTION('',(0.,0.,-1.));
#288=DIRECTION('',(1.,0.,0.));
#289=DIRECTION('',(0.,0.,-1.));
#290=DIRECTION('',(0.,1.,0.));
#291=DIRECTION('',(0.,0.,1.));
#292=DIRECTION('',(0.,1.,0.));
#293=DIRECTION('',(1.,0.,0.));
#294=DIRECTION('',(0.,1.,0.));
#295=DIRECTION('',(1.,0.,0.));
#296=DIRECTION('',(0.,1.,0.));
#297=DIRECTION('',(0.,0.,1.));
#298=DIRECTION('',(0.,1.,0.));
#299=DIRECTION('',(0.,0.,1.));
#300=CARTESIAN_POINT('',(0.,0.,0.));
#301=CARTESIAN_POINT('',(-2.95908104090124E-16,0.,43.5));
#302=CARTESIAN_POINT('',(0.,-1.,39.5030659274412));
#303=CARTESIAN_POINT('',(-3.76465742307528E-16,-1.,41.2378770064609));
#304=CARTESIAN_POINT('',(-8.6486707770918E-16,-1.,43.4885042281291));
#305=CARTESIAN_POINT('',(3.25260651745651E-16,0.,0.));
#306=CARTESIAN_POINT('',(-3.76465742307528E-16,1.,41.2378770064609));
#307=CARTESIAN_POINT('',(0.,1.,39.5030659274412));
#308=CARTESIAN_POINT('',(-8.6486707770918E-16,1.,43.4885042281291));
#309=CARTESIAN_POINT('',(-8.67361737988404E-16,0.,0.));
#310=CARTESIAN_POINT('',(0.800000000000002,0.,0.));
#311=CARTESIAN_POINT('',(0.800000000000002,-1.,41.2378770064609));
#312=CARTESIAN_POINT('',(0.759851802359742,-1.,41.2378770064609));
#313=CARTESIAN_POINT('',(0.759851802359742,0.,0.));
#314=CARTESIAN_POINT('',(0.759851802359742,1.,41.2378770064609));
#315=CARTESIAN_POINT('',(0.800000000000002,1.,41.2378770064609));
#316=CARTESIAN_POINT('',(0.759851802359742,0.,0.));
#317=CARTESIAN_POINT('',(1.1357288506741,0.,0.));
#318=CARTESIAN_POINT('',(1.1357288506741,0.,-40.7131919426697));
#319=CARTESIAN_POINT('',(0.930827603578502,-1.,41.1994832940977));
#320=CARTESIAN_POINT('',(0.877502605405374,-1.,41.2247032226061));
#321=CARTESIAN_POINT('',(0.818500566398279,-1.,41.2378770064609));
#322=CARTESIAN_POINT('',(0.759851802359742,-1.,41.2378770064609));
#323=CARTESIAN_POINT('',(0.930827603578498,-1.,41.1994832940977));
#324=CARTESIAN_POINT('',(0.930827603578501,-1.,41.1994832940977));
#325=CARTESIAN_POINT('',(0.937235377093039,-0.333410593767613,41.2126323105951));
#326=CARTESIAN_POINT('',(0.937235380740895,0.333410214287697,41.2126323180807));
#327=CARTESIAN_POINT('',(0.930827603578502,1.,41.1994832940977));
#328=CARTESIAN_POINT('',(0.930827603578498,1.,41.1994832940977));
#329=CARTESIAN_POINT('',(0.930827603578502,1.,41.1994832940977));
#330=CARTESIAN_POINT('',(0.877502605405374,1.,41.2247032226061));
#331=CARTESIAN_POINT('',(0.818500566398279,1.,41.2378770064609));
#332=CARTESIAN_POINT('',(0.759851802359742,1.,41.2378770064609));
#333=CARTESIAN_POINT('',(6.25,0.,0.));
#334=CARTESIAN_POINT('',(6.25,0.,0.));
#335=CARTESIAN_POINT('',(6.25,0.,38.1017723264674));
#336=CARTESIAN_POINT('',(6.25,0.,0.));
#337=CARTESIAN_POINT('',(5.10144751178275,0.,0.));
#338=CARTESIAN_POINT('',(5.10144751178275,0.,-42.3882285676538));
#339=CARTESIAN_POINT('',(0.800000000000002,0.,0.));
#340=CARTESIAN_POINT('',(3.65255877234915,0.,0.));
#341=CARTESIAN_POINT('',(3.65255877234915,0.,-43.5));
#342=CARTESIAN_POINT('',(1.87576375182576,1.,43.4885042281291));
#343=CARTESIAN_POINT('',(1.88100690855072,0.333333333333333,43.5038339498222));
#344=CARTESIAN_POINT('',(1.88100690855072,-0.333333333333334,43.5038339498222));
#345=CARTESIAN_POINT('',(1.87576375182577,-1.,43.4885042281291));
#346=CARTESIAN_POINT('',(1.87576375182576,1.,43.4885042281291));
#347=CARTESIAN_POINT('',(1.87576375182576,-1.,43.4885042281291));
#348=CARTESIAN_POINT('',(0.800000000000002,-1.,43.4885042281291));
#349=CARTESIAN_POINT('',(0.800000000000002,1.,43.4885042281291));
#350=CARTESIAN_POINT('',(1.33111100505659,0.,0.));
#351=CARTESIAN_POINT('',(0.400000000000001,0.,0.));
#352=CARTESIAN_POINT('',(0.400000000000001,0.,38.6917935386013));
#353=CARTESIAN_POINT('',(0.400000000000001,0.,38.6917935386013));
#354=CARTESIAN_POINT('',(0.400000000000001,0.,0.));
#355=CARTESIAN_POINT('',(0.400000000000001,0.,35.));
#356=CARTESIAN_POINT('',(0.800000000000002,0.,0.));
#357=CARTESIAN_POINT('',(0.800000000000001,0.,0.));
#358=CARTESIAN_POINT('',(0.800000000000001,0.,35.));
#359=CARTESIAN_POINT('',(0.800000000000002,0.,35.));
#360=CARTESIAN_POINT('',(3.65255877234915,0.,0.));
#361=CARTESIAN_POINT('',(-17.0479777983839,-1.,49.9609076256985));
#362=CARTESIAN_POINT('',(-17.0479777983839,1.,49.9609076256985));
#363=CARTESIAN_POINT('',(-17.0479777983839,-1.,49.9609076256985));
#364=CARTESIAN_POINT('',(-17.0479777983839,-1.,49.9609076256985));
#365=CARTESIAN_POINT('',(-17.0479777983839,1.,49.9609076256985));
#366=MECHANICAL_DESIGN_GEOMETRIC_PRESENTATION_REPRESENTATION('',(#202),
#367);
#367=(
GEOMETRIC_REPRESENTATION_CONTEXT(3)
GLOBAL_UNCERTAINTY_ASSIGNED_CONTEXT((#368))
GLOBAL_UNIT_ASSIGNED_CONTEXT((#371,#370,#369))
REPRESENTATION_CONTEXT('32.063005.640.363','TOP_LEVEL_ASSEMBLY_PART')
);
#368=UNCERTAINTY_MEASURE_WITH_UNIT(LENGTH_MEASURE(0.005),#371,
'DISTANCE_ACCURACY_VALUE','Maximum Tolerance applied to model');
#369=(
NAMED_UNIT(*)
SI_UNIT($,.STERADIAN.)
SOLID_ANGLE_UNIT()
);
#370=(
NAMED_UNIT(*)
PLANE_ANGLE_UNIT()
SI_UNIT($,.RADIAN.)
);
#371=(
LENGTH_UNIT()
NAMED_UNIT(*)
SI_UNIT(.MILLI.,.METRE.)
);
#372=PRODUCT_DEFINITION_SHAPE('','',#373);
#373=PRODUCT_DEFINITION('','',#375,#374);
#374=PRODUCT_DEFINITION_CONTEXT('',#381,'design');
#375=PRODUCT_DEFINITION_FORMATION_WITH_SPECIFIED_SOURCE('','',#377,
 .NOT_KNOWN.);
#376=PRODUCT_RELATED_PRODUCT_CATEGORY('','',(#377));
#377=PRODUCT('32.063005.640.363','32.063005.640.363',
'32.063005.640.363',(#379));
#378=PRODUCT_CATEGORY('','');
#379=PRODUCT_CONTEXT('',#381,'mechanical');
#380=APPLICATION_PROTOCOL_DEFINITION('international standard',
'automotive_design',2010,#381);
#381=APPLICATION_CONTEXT(
'core data for automotive mechanical design processes');
ENDSEC;
END-ISO-10303-21;
