ISO-10303-21;
HEADER;
/* Generated by software containing ST-Developer
 * from STEP Tools, Inc. (www.steptools.com) 
 */
/* OPTION: strings as raw bytes, not using required /X/ escapes */

FILE_DESCRIPTION(
/* description */ (''),
/* implementation_level */ '2;1');

FILE_NAME(
/* name */ '32.160003.220.316',
/* time_stamp */ '2018-10-08T16:02:30+02:00',
/* author */ ('Murat Coskun Bicak'),
/* organization */ ('Evac AG'),
/* preprocessor_version */ 'ST-DEVELOPER v16.7',
/* originating_system */ 'DEX',
/* authorisation */ $);

FILE_SCHEMA (('AUTOMOTIVE_DESIGN {1 0 10303 214 3 1 1}'));
ENDSEC;

DATA;
#10=PROPERTY_DEFINITION_REPRESENTATION(#14,#12);
#11=PROPERTY_DEFINITION_REPRESENTATION(#15,#13);
#12=REPRESENTATION('',(#16),#263);
#13=REPRESENTATION('',(#17),#263);
#14=PROPERTY_DEFINITION('pmi validation property','',#268);
#15=PROPERTY_DEFINITION('pmi validation property','',#268);
#16=VALUE_REPRESENTATION_ITEM('number of annotations',COUNT_MEASURE(0.));
#17=VALUE_REPRESENTATION_ITEM('number of views',COUNT_MEASURE(0.));
#18=SHAPE_REPRESENTATION_RELATIONSHIP('','',#154,#19);
#19=ADVANCED_BREP_SHAPE_REPRESENTATION('',(#152),#263);
#20=TOROIDAL_SURFACE('',#170,76.1,0.400000000000005);
#21=TOROIDAL_SURFACE('',#173,73.9,0.400000000000008);
#22=TOROIDAL_SURFACE('',#176,93.,2.);
#23=CYLINDRICAL_SURFACE('',#168,95.);
#24=CYLINDRICAL_SURFACE('',#172,76.5);
#25=CYLINDRICAL_SURFACE('',#175,73.5);
#26=CONICAL_SURFACE('',#166,94.75,0.785398163397455);
#27=CONICAL_SURFACE('',#178,90.3842379353162,1.22173047639603);
#28=ORIENTED_EDGE('',*,*,#50,.F.);
#29=ORIENTED_EDGE('',*,*,#51,.T.);
#30=ORIENTED_EDGE('',*,*,#52,.F.);
#31=ORIENTED_EDGE('',*,*,#53,.F.);
#32=ORIENTED_EDGE('',*,*,#54,.F.);
#33=ORIENTED_EDGE('',*,*,#55,.F.);
#34=ORIENTED_EDGE('',*,*,#55,.T.);
#35=ORIENTED_EDGE('',*,*,#56,.T.);
#36=ORIENTED_EDGE('',*,*,#56,.F.);
#37=ORIENTED_EDGE('',*,*,#57,.F.);
#38=ORIENTED_EDGE('',*,*,#53,.T.);
#39=ORIENTED_EDGE('',*,*,#58,.T.);
#40=ORIENTED_EDGE('',*,*,#54,.T.);
#41=ORIENTED_EDGE('',*,*,#58,.F.);
#42=ORIENTED_EDGE('',*,*,#59,.T.);
#43=ORIENTED_EDGE('',*,*,#52,.T.);
#44=ORIENTED_EDGE('',*,*,#51,.F.);
#45=ORIENTED_EDGE('',*,*,#59,.F.);
#46=ORIENTED_EDGE('',*,*,#57,.T.);
#47=ORIENTED_EDGE('',*,*,#60,.T.);
#48=ORIENTED_EDGE('',*,*,#60,.F.);
#49=ORIENTED_EDGE('',*,*,#50,.T.);
#50=EDGE_CURVE('',#61,#61,#72,.T.);
#51=EDGE_CURVE('',#62,#62,#73,.T.);
#52=EDGE_CURVE('',#63,#63,#74,.T.);
#53=EDGE_CURVE('',#64,#64,#75,.T.);
#54=EDGE_CURVE('',#65,#65,#76,.T.);
#55=EDGE_CURVE('',#66,#66,#77,.T.);
#56=EDGE_CURVE('',#67,#67,#78,.T.);
#57=EDGE_CURVE('',#68,#68,#79,.T.);
#58=EDGE_CURVE('',#69,#69,#80,.T.);
#59=EDGE_CURVE('',#70,#70,#81,.T.);
#60=EDGE_CURVE('',#71,#71,#82,.T.);
#61=VERTEX_POINT('',#230);
#62=VERTEX_POINT('',#233);
#63=VERTEX_POINT('',#236);
#64=VERTEX_POINT('',#238);
#65=VERTEX_POINT('',#241);
#66=VERTEX_POINT('',#243);
#67=VERTEX_POINT('',#246);
#68=VERTEX_POINT('',#249);
#69=VERTEX_POINT('',#252);
#70=VERTEX_POINT('',#256);
#71=VERTEX_POINT('',#260);
#72=CIRCLE('',#157,85.7684758706325);
#73=CIRCLE('',#159,73.5);
#74=CIRCLE('',#161,73.9);
#75=CIRCLE('',#162,76.1);
#76=CIRCLE('',#164,76.5);
#77=CIRCLE('',#165,94.5);
#78=CIRCLE('',#167,95.);
#79=CIRCLE('',#169,95.);
#80=CIRCLE('',#171,76.5);
#81=CIRCLE('',#174,73.5);
#82=CIRCLE('',#177,93.6840402866513);
#83=EDGE_LOOP('',(#28));
#84=EDGE_LOOP('',(#29));
#85=EDGE_LOOP('',(#30));
#86=EDGE_LOOP('',(#31));
#87=EDGE_LOOP('',(#32));
#88=EDGE_LOOP('',(#33));
#89=EDGE_LOOP('',(#34));
#90=EDGE_LOOP('',(#35));
#91=EDGE_LOOP('',(#36));
#92=EDGE_LOOP('',(#37));
#93=EDGE_LOOP('',(#38));
#94=EDGE_LOOP('',(#39));
#95=EDGE_LOOP('',(#40));
#96=EDGE_LOOP('',(#41));
#97=EDGE_LOOP('',(#42));
#98=EDGE_LOOP('',(#43));
#99=EDGE_LOOP('',(#44));
#100=EDGE_LOOP('',(#45));
#101=EDGE_LOOP('',(#46));
#102=EDGE_LOOP('',(#47));
#103=EDGE_LOOP('',(#48));
#104=EDGE_LOOP('',(#49));
#105=FACE_BOUND('',#83,.T.);
#106=FACE_BOUND('',#84,.T.);
#107=FACE_BOUND('',#85,.T.);
#108=FACE_BOUND('',#86,.T.);
#109=FACE_BOUND('',#87,.T.);
#110=FACE_BOUND('',#88,.T.);
#111=FACE_BOUND('',#89,.T.);
#112=FACE_BOUND('',#90,.T.);
#113=FACE_BOUND('',#91,.T.);
#114=FACE_BOUND('',#92,.T.);
#115=FACE_BOUND('',#93,.T.);
#116=FACE_BOUND('',#94,.T.);
#117=FACE_BOUND('',#95,.T.);
#118=FACE_BOUND('',#96,.T.);
#119=FACE_BOUND('',#97,.T.);
#120=FACE_BOUND('',#98,.T.);
#121=FACE_BOUND('',#99,.T.);
#122=FACE_BOUND('',#100,.T.);
#123=FACE_BOUND('',#101,.T.);
#124=FACE_BOUND('',#102,.T.);
#125=FACE_BOUND('',#103,.T.);
#126=FACE_BOUND('',#104,.T.);
#127=PLANE('',#156);
#128=PLANE('',#158);
#129=PLANE('',#160);
#130=PLANE('',#163);
#131=ADVANCED_FACE('',(#105),#127,.T.);
#132=ADVANCED_FACE('',(#106),#128,.T.);
#133=ADVANCED_FACE('',(#107,#108),#129,.T.);
#134=ADVANCED_FACE('',(#109,#110),#130,.T.);
#135=ADVANCED_FACE('',(#111,#112),#26,.T.);
#136=ADVANCED_FACE('',(#113,#114),#23,.T.);
#137=ADVANCED_FACE('',(#115,#116),#20,.F.);
#138=ADVANCED_FACE('',(#117,#118),#24,.F.);
#139=ADVANCED_FACE('',(#119,#120),#21,.F.);
#140=ADVANCED_FACE('',(#121,#122),#25,.T.);
#141=ADVANCED_FACE('',(#123,#124),#22,.T.);
#142=ADVANCED_FACE('',(#125,#126),#27,.T.);
#143=CLOSED_SHELL('',(#131,#132,#133,#134,#135,#136,#137,#138,#139,#140,
#141,#142));
#144=STYLED_ITEM('',(#145),#152);
#145=PRESENTATION_STYLE_ASSIGNMENT((#146));
#146=SURFACE_STYLE_USAGE(.BOTH.,#147);
#147=SURFACE_SIDE_STYLE('',(#148));
#148=SURFACE_STYLE_FILL_AREA(#149);
#149=FILL_AREA_STYLE('',(#150));
#150=FILL_AREA_STYLE_COLOUR('',#151);
#151=COLOUR_RGB('',0.423529446125031,0.423529446125031,0.470588266849518);
#152=MANIFOLD_SOLID_BREP('',#143);
#153=SHAPE_DEFINITION_REPRESENTATION(#268,#154);
#154=SHAPE_REPRESENTATION('32.160003.220.316',(#155),#263);
#155=AXIS2_PLACEMENT_3D('',#227,#179,#180);
#156=AXIS2_PLACEMENT_3D('',#228,#181,#182);
#157=AXIS2_PLACEMENT_3D('',#229,#183,#184);
#158=AXIS2_PLACEMENT_3D('',#231,#185,#186);
#159=AXIS2_PLACEMENT_3D('',#232,#187,#188);
#160=AXIS2_PLACEMENT_3D('',#234,#189,#190);
#161=AXIS2_PLACEMENT_3D('',#235,#191,#192);
#162=AXIS2_PLACEMENT_3D('',#237,#193,#194);
#163=AXIS2_PLACEMENT_3D('',#239,#195,#196);
#164=AXIS2_PLACEMENT_3D('',#240,#197,#198);
#165=AXIS2_PLACEMENT_3D('',#242,#199,#200);
#166=AXIS2_PLACEMENT_3D('',#244,#201,#202);
#167=AXIS2_PLACEMENT_3D('',#245,#203,#204);
#168=AXIS2_PLACEMENT_3D('',#247,#205,#206);
#169=AXIS2_PLACEMENT_3D('',#248,#207,#208);
#170=AXIS2_PLACEMENT_3D('',#250,#209,#210);
#171=AXIS2_PLACEMENT_3D('',#251,#211,#212);
#172=AXIS2_PLACEMENT_3D('',#253,#213,#214);
#173=AXIS2_PLACEMENT_3D('',#254,#215,#216);
#174=AXIS2_PLACEMENT_3D('',#255,#217,#218);
#175=AXIS2_PLACEMENT_3D('',#257,#219,#220);
#176=AXIS2_PLACEMENT_3D('',#258,#221,#222);
#177=AXIS2_PLACEMENT_3D('',#259,#223,#224);
#178=AXIS2_PLACEMENT_3D('',#261,#225,#226);
#179=DIRECTION('',(0.,0.,1.));
#180=DIRECTION('',(1.,0.,0.));
#181=DIRECTION('',(-1.,0.,0.));
#182=DIRECTION('',(0.,0.,1.));
#183=DIRECTION('',(1.,0.,0.));
#184=DIRECTION('',(0.,1.,0.));
#185=DIRECTION('',(1.,0.,0.));
#186=DIRECTION('',(0.,0.,-1.));
#187=DIRECTION('',(1.,0.,0.));
#188=DIRECTION('',(0.,1.,0.));
#189=DIRECTION('',(1.,0.,0.));
#190=DIRECTION('',(0.,0.,-1.));
#191=DIRECTION('',(1.,0.,0.));
#192=DIRECTION('',(0.,-1.,0.));
#193=DIRECTION('',(-1.,0.,0.));
#194=DIRECTION('',(0.,-1.,0.));
#195=DIRECTION('',(1.,0.,0.));
#196=DIRECTION('',(0.,0.,-1.));
#197=DIRECTION('',(1.,0.,0.));
#198=DIRECTION('',(0.,1.,0.));
#199=DIRECTION('',(-1.,0.,0.));
#200=DIRECTION('',(0.,-1.,0.));
#201=DIRECTION('',(-1.,0.,0.));
#202=DIRECTION('',(0.,-1.,0.));
#203=DIRECTION('',(1.,0.,0.));
#204=DIRECTION('',(0.,-1.,0.));
#205=DIRECTION('',(1.,0.,0.));
#206=DIRECTION('',(0.,1.,0.));
#207=DIRECTION('',(-1.,0.,0.));
#208=DIRECTION('',(0.,-1.,0.));
#209=DIRECTION('',(1.,0.,0.));
#210=DIRECTION('',(0.,0.,-1.));
#211=DIRECTION('',(1.,0.,0.));
#212=DIRECTION('',(0.,-1.,0.));
#213=DIRECTION('',(1.,0.,0.));
#214=DIRECTION('',(0.,1.,0.));
#215=DIRECTION('',(1.,0.,0.));
#216=DIRECTION('',(0.,0.,-1.));
#217=DIRECTION('',(-1.,0.,0.));
#218=DIRECTION('',(0.,-1.,0.));
#219=DIRECTION('',(1.,0.,0.));
#220=DIRECTION('',(0.,1.,0.));
#221=DIRECTION('',(1.,0.,0.));
#222=DIRECTION('',(0.,0.,-1.));
#223=DIRECTION('',(1.,0.,0.));
#224=DIRECTION('',(0.,-1.,0.));
#225=DIRECTION('',(1.,0.,0.));
#226=DIRECTION('',(0.,1.,0.));
#227=CARTESIAN_POINT('',(0.,0.,0.));
#228=CARTESIAN_POINT('',(-5.75,42.8842379353162,0.));
#229=CARTESIAN_POINT('',(-5.75,0.,0.));
#230=CARTESIAN_POINT('',(-5.75,85.7684758706325,0.));
#231=CARTESIAN_POINT('',(5.75,36.75,0.));
#232=CARTESIAN_POINT('',(5.75,0.,0.));
#233=CARTESIAN_POINT('',(5.75,73.5,0.));
#234=CARTESIAN_POINT('',(2.75,75.,0.));
#235=CARTESIAN_POINT('',(2.75,0.,0.));
#236=CARTESIAN_POINT('',(2.75,-73.9,0.));
#237=CARTESIAN_POINT('',(2.75,0.,0.));
#238=CARTESIAN_POINT('',(2.75,-76.1,0.));
#239=CARTESIAN_POINT('',(5.75,85.75,0.));
#240=CARTESIAN_POINT('',(5.75,0.,0.));
#241=CARTESIAN_POINT('',(5.75,76.5,0.));
#242=CARTESIAN_POINT('',(5.75,0.,0.));
#243=CARTESIAN_POINT('',(5.75,-94.5,0.));
#244=CARTESIAN_POINT('',(5.5,0.,0.));
#245=CARTESIAN_POINT('',(5.25,0.,0.));
#246=CARTESIAN_POINT('',(5.25,-95.,0.));
#247=CARTESIAN_POINT('',(1.68,0.,0.));
#248=CARTESIAN_POINT('',(-0.98958492358058,0.,0.));
#249=CARTESIAN_POINT('',(-0.98958492358058,-95.,0.));
#250=CARTESIAN_POINT('',(3.15,3.00593345195362E-14,-1.38777878078145E-14));
#251=CARTESIAN_POINT('',(3.15,0.,0.));
#252=CARTESIAN_POINT('',(3.15,-76.5,0.));
#253=CARTESIAN_POINT('',(4.25,0.,0.));
#254=CARTESIAN_POINT('',(3.15,1.63162532117217E-14,-1.38777878078145E-14));
#255=CARTESIAN_POINT('',(3.15,0.,0.));
#256=CARTESIAN_POINT('',(3.15,-73.5,0.));
#257=CARTESIAN_POINT('',(4.25,0.,0.));
#258=CARTESIAN_POINT('',(-0.98958492358058,0.,0.));
#259=CARTESIAN_POINT('',(-2.8689701651524,0.,-1.147261E-14));
#260=CARTESIAN_POINT('',(-2.8689701651524,-93.6840402866513,-1.147261E-14));
#261=CARTESIAN_POINT('',(-4.07,0.,0.));
#262=MECHANICAL_DESIGN_GEOMETRIC_PRESENTATION_REPRESENTATION('',(#144),
#263);
#263=(
GEOMETRIC_REPRESENTATION_CONTEXT(3)
GLOBAL_UNCERTAINTY_ASSIGNED_CONTEXT((#264))
GLOBAL_UNIT_ASSIGNED_CONTEXT((#267,#266,#265))
REPRESENTATION_CONTEXT('32.160003.220.316','TOP_LEVEL_ASSEMBLY_PART')
);
#264=UNCERTAINTY_MEASURE_WITH_UNIT(LENGTH_MEASURE(0.005),#267,
'DISTANCE_ACCURACY_VALUE','Maximum Tolerance applied to model');
#265=(
NAMED_UNIT(*)
SI_UNIT($,.STERADIAN.)
SOLID_ANGLE_UNIT()
);
#266=(
NAMED_UNIT(*)
PLANE_ANGLE_UNIT()
SI_UNIT($,.RADIAN.)
);
#267=(
LENGTH_UNIT()
NAMED_UNIT(*)
SI_UNIT(.MILLI.,.METRE.)
);
#268=PRODUCT_DEFINITION_SHAPE('','',#269);
#269=PRODUCT_DEFINITION('','',#271,#270);
#270=PRODUCT_DEFINITION_CONTEXT('',#277,'design');
#271=PRODUCT_DEFINITION_FORMATION_WITH_SPECIFIED_SOURCE('','',#273,
 .NOT_KNOWN.);
#272=PRODUCT_RELATED_PRODUCT_CATEGORY('','',(#273));
#273=PRODUCT('32.160003.220.316','32.160003.220.316',
'32.160003.220.316',(#275));
#274=PRODUCT_CATEGORY('','');
#275=PRODUCT_CONTEXT('',#277,'mechanical');
#276=APPLICATION_PROTOCOL_DEFINITION('international standard',
'automotive_design',2010,#277);
#277=APPLICATION_CONTEXT(
'core data for automotive mechanical design processes');
ENDSEC;
END-ISO-10303-21;
