ISO-10303-21;
HEADER;
/* Generated by software containing ST-Developer
 * from STEP Tools, Inc. (www.steptools.com) 
 */
/* OPTION: strings as raw bytes, not using required /X/ escapes */

FILE_DESCRIPTION(
/* description */ (''),
/* implementation_level */ '2;1');

FILE_NAME(
/* name */ '32.200003.210.320',
/* time_stamp */ '2018-10-08T14:06:58+02:00',
/* author */ ('Murat Coskun Bicak'),
/* organization */ ('Evac AG'),
/* preprocessor_version */ 'ST-DEVELOPER v16.7',
/* originating_system */ 'DEX',
/* authorisation */ $);

FILE_SCHEMA (('AUTOMOTIVE_DESIGN {1 0 10303 214 3 1 1}'));
ENDSEC;

DATA;
#10=PROPERTY_DEFINITION_REPRESENTATION(#14,#12);
#11=PROPERTY_DEFINITION_REPRESENTATION(#15,#13);
#12=REPRESENTATION('',(#16),#337);
#13=REPRESENTATION('',(#17),#337);
#14=PROPERTY_DEFINITION('pmi validation property','',#342);
#15=PROPERTY_DEFINITION('pmi validation property','',#342);
#16=VALUE_REPRESENTATION_ITEM('number of annotations',COUNT_MEASURE(0.));
#17=VALUE_REPRESENTATION_ITEM('number of views',COUNT_MEASURE(0.));
#18=SHAPE_REPRESENTATION_RELATIONSHIP('','',#196,#19);
#19=ADVANCED_BREP_SHAPE_REPRESENTATION('',(#194),#337);
#20=TOROIDAL_SURFACE('',#221,116.,1.);
#21=TOROIDAL_SURFACE('',#222,124.,2.);
#22=CONICAL_SURFACE('',#204,107.,0.785398163397448);
#23=CONICAL_SURFACE('',#206,109.55,0.785398163397466);
#24=CONICAL_SURFACE('',#209,106.5,0.785398163397483);
#25=CONICAL_SURFACE('',#212,114.,0.785398163397448);
#26=CONICAL_SURFACE('',#215,115.,1.22173047639603);
#27=CONICAL_SURFACE('',#226,126.,0.785398163397448);
#28=PLANE('',#201);
#29=PLANE('',#225);
#30=PLANE('',#227);
#31=ORIENTED_EDGE('',*,*,#61,.T.);
#32=ORIENTED_EDGE('',*,*,#62,.F.);
#33=ORIENTED_EDGE('',*,*,#63,.T.);
#34=ORIENTED_EDGE('',*,*,#64,.F.);
#35=ORIENTED_EDGE('',*,*,#64,.T.);
#36=ORIENTED_EDGE('',*,*,#65,.F.);
#37=ORIENTED_EDGE('',*,*,#66,.F.);
#38=ORIENTED_EDGE('',*,*,#67,.T.);
#39=ORIENTED_EDGE('',*,*,#68,.F.);
#40=ORIENTED_EDGE('',*,*,#69,.T.);
#41=ORIENTED_EDGE('',*,*,#70,.F.);
#42=ORIENTED_EDGE('',*,*,#71,.T.);
#43=ORIENTED_EDGE('',*,*,#72,.T.);
#44=ORIENTED_EDGE('',*,*,#73,.T.);
#45=ORIENTED_EDGE('',*,*,#74,.T.);
#46=ORIENTED_EDGE('',*,*,#71,.F.);
#47=ORIENTED_EDGE('',*,*,#68,.T.);
#48=ORIENTED_EDGE('',*,*,#65,.T.);
#49=ORIENTED_EDGE('',*,*,#74,.F.);
#50=ORIENTED_EDGE('',*,*,#73,.F.);
#51=ORIENTED_EDGE('',*,*,#72,.F.);
#52=ORIENTED_EDGE('',*,*,#61,.F.);
#53=ORIENTED_EDGE('',*,*,#75,.F.);
#54=ORIENTED_EDGE('',*,*,#66,.T.);
#55=ORIENTED_EDGE('',*,*,#75,.T.);
#56=ORIENTED_EDGE('',*,*,#69,.F.);
#57=ORIENTED_EDGE('',*,*,#62,.T.);
#58=ORIENTED_EDGE('',*,*,#63,.F.);
#59=ORIENTED_EDGE('',*,*,#70,.T.);
#60=ORIENTED_EDGE('',*,*,#67,.F.);
#61=EDGE_CURVE('',#76,#76,#91,.T.);
#62=EDGE_CURVE('',#77,#77,#92,.T.);
#63=EDGE_CURVE('',#78,#78,#93,.T.);
#64=EDGE_CURVE('',#79,#79,#94,.T.);
#65=EDGE_CURVE('',#80,#80,#95,.T.);
#66=EDGE_CURVE('',#81,#81,#96,.T.);
#67=EDGE_CURVE('',#82,#82,#97,.T.);
#68=EDGE_CURVE('',#83,#83,#98,.T.);
#69=EDGE_CURVE('',#84,#84,#99,.T.);
#70=EDGE_CURVE('',#85,#85,#100,.T.);
#71=EDGE_CURVE('',#86,#86,#101,.T.);
#72=EDGE_CURVE('',#87,#87,#102,.T.);
#73=EDGE_CURVE('',#88,#88,#103,.T.);
#74=EDGE_CURVE('',#89,#89,#104,.T.);
#75=EDGE_CURVE('',#90,#90,#105,.T.);
#76=VERTEX_POINT('',#293);
#77=VERTEX_POINT('',#295);
#78=VERTEX_POINT('',#298);
#79=VERTEX_POINT('',#300);
#80=VERTEX_POINT('',#303);
#81=VERTEX_POINT('',#306);
#82=VERTEX_POINT('',#308);
#83=VERTEX_POINT('',#311);
#84=VERTEX_POINT('',#313);
#85=VERTEX_POINT('',#316);
#86=VERTEX_POINT('',#318);
#87=VERTEX_POINT('',#321);
#88=VERTEX_POINT('',#323);
#89=VERTEX_POINT('',#326);
#90=VERTEX_POINT('',#332);
#91=CIRCLE('',#199,126.);
#92=CIRCLE('',#200,126.);
#93=CIRCLE('',#202,125.5);
#94=CIRCLE('',#203,107.);
#95=CIRCLE('',#205,106.5);
#96=CIRCLE('',#207,109.55);
#97=CIRCLE('',#208,109.75);
#98=CIRCLE('',#210,106.5);
#99=CIRCLE('',#211,106.7);
#100=CIRCLE('',#213,114.);
#101=CIRCLE('',#214,115.);
#102=CIRCLE('',#216,124.684040286651);
#103=CIRCLE('',#217,115.657979856674);
#104=CIRCLE('',#219,115.);
#105=CIRCLE('',#224,109.55);
#106=EDGE_LOOP('',(#31));
#107=EDGE_LOOP('',(#32));
#108=EDGE_LOOP('',(#33));
#109=EDGE_LOOP('',(#34));
#110=EDGE_LOOP('',(#35));
#111=EDGE_LOOP('',(#36));
#112=EDGE_LOOP('',(#37));
#113=EDGE_LOOP('',(#38));
#114=EDGE_LOOP('',(#39));
#115=EDGE_LOOP('',(#40));
#116=EDGE_LOOP('',(#41));
#117=EDGE_LOOP('',(#42));
#118=EDGE_LOOP('',(#43));
#119=EDGE_LOOP('',(#44));
#120=EDGE_LOOP('',(#45));
#121=EDGE_LOOP('',(#46));
#122=EDGE_LOOP('',(#47));
#123=EDGE_LOOP('',(#48));
#124=EDGE_LOOP('',(#49));
#125=EDGE_LOOP('',(#50));
#126=EDGE_LOOP('',(#51));
#127=EDGE_LOOP('',(#52));
#128=EDGE_LOOP('',(#53));
#129=EDGE_LOOP('',(#54));
#130=EDGE_LOOP('',(#55));
#131=EDGE_LOOP('',(#56));
#132=EDGE_LOOP('',(#57));
#133=EDGE_LOOP('',(#58));
#134=EDGE_LOOP('',(#59));
#135=EDGE_LOOP('',(#60));
#136=FACE_BOUND('',#106,.T.);
#137=FACE_BOUND('',#107,.T.);
#138=FACE_BOUND('',#108,.T.);
#139=FACE_BOUND('',#109,.T.);
#140=FACE_BOUND('',#110,.T.);
#141=FACE_BOUND('',#111,.T.);
#142=FACE_BOUND('',#112,.T.);
#143=FACE_BOUND('',#113,.T.);
#144=FACE_BOUND('',#114,.T.);
#145=FACE_BOUND('',#115,.T.);
#146=FACE_BOUND('',#116,.T.);
#147=FACE_BOUND('',#117,.T.);
#148=FACE_BOUND('',#118,.T.);
#149=FACE_BOUND('',#119,.T.);
#150=FACE_BOUND('',#120,.T.);
#151=FACE_BOUND('',#121,.T.);
#152=FACE_BOUND('',#122,.T.);
#153=FACE_BOUND('',#123,.T.);
#154=FACE_BOUND('',#124,.T.);
#155=FACE_BOUND('',#125,.T.);
#156=FACE_BOUND('',#126,.T.);
#157=FACE_BOUND('',#127,.T.);
#158=FACE_BOUND('',#128,.T.);
#159=FACE_BOUND('',#129,.T.);
#160=FACE_BOUND('',#130,.T.);
#161=FACE_BOUND('',#131,.T.);
#162=FACE_BOUND('',#132,.T.);
#163=FACE_BOUND('',#133,.T.);
#164=FACE_BOUND('',#134,.T.);
#165=FACE_BOUND('',#135,.T.);
#166=CYLINDRICAL_SURFACE('',#198,126.);
#167=CYLINDRICAL_SURFACE('',#218,115.);
#168=CYLINDRICAL_SURFACE('',#220,106.5);
#169=CYLINDRICAL_SURFACE('',#223,109.55);
#170=ADVANCED_FACE('',(#136,#137),#166,.T.);
#171=ADVANCED_FACE('',(#138,#139),#28,.T.);
#172=ADVANCED_FACE('',(#140,#141),#22,.F.);
#173=ADVANCED_FACE('',(#142,#143),#23,.F.);
#174=ADVANCED_FACE('',(#144,#145),#24,.F.);
#175=ADVANCED_FACE('',(#146,#147),#25,.T.);
#176=ADVANCED_FACE('',(#148,#149),#26,.T.);
#177=ADVANCED_FACE('',(#150,#151),#167,.T.);
#178=ADVANCED_FACE('',(#152,#153),#168,.F.);
#179=ADVANCED_FACE('',(#154,#155),#20,.F.);
#180=ADVANCED_FACE('',(#156,#157),#21,.T.);
#181=ADVANCED_FACE('',(#158,#159),#169,.F.);
#182=ADVANCED_FACE('',(#160,#161),#29,.T.);
#183=ADVANCED_FACE('',(#162,#163),#27,.T.);
#184=ADVANCED_FACE('',(#164,#165),#30,.T.);
#185=CLOSED_SHELL('',(#170,#171,#172,#173,#174,#175,#176,#177,#178,#179,
#180,#181,#182,#183,#184));
#186=STYLED_ITEM('',(#187),#194);
#187=PRESENTATION_STYLE_ASSIGNMENT((#188));
#188=SURFACE_STYLE_USAGE(.BOTH.,#189);
#189=SURFACE_SIDE_STYLE('',(#190));
#190=SURFACE_STYLE_FILL_AREA(#191);
#191=FILL_AREA_STYLE('',(#192));
#192=FILL_AREA_STYLE_COLOUR('',#193);
#193=COLOUR_RGB('',0.517647087574005,0.517647087574005,0.517647087574005);
#194=MANIFOLD_SOLID_BREP('1',#185);
#195=SHAPE_DEFINITION_REPRESENTATION(#342,#196);
#196=SHAPE_REPRESENTATION('32.200003.210.320',(#197),#337);
#197=AXIS2_PLACEMENT_3D('',#290,#228,#229);
#198=AXIS2_PLACEMENT_3D('',#291,#230,#231);
#199=AXIS2_PLACEMENT_3D('',#292,#232,#233);
#200=AXIS2_PLACEMENT_3D('',#294,#234,#235);
#201=AXIS2_PLACEMENT_3D('',#296,#236,#237);
#202=AXIS2_PLACEMENT_3D('',#297,#238,#239);
#203=AXIS2_PLACEMENT_3D('',#299,#240,#241);
#204=AXIS2_PLACEMENT_3D('',#301,#242,#243);
#205=AXIS2_PLACEMENT_3D('',#302,#244,#245);
#206=AXIS2_PLACEMENT_3D('',#304,#246,#247);
#207=AXIS2_PLACEMENT_3D('',#305,#248,#249);
#208=AXIS2_PLACEMENT_3D('',#307,#250,#251);
#209=AXIS2_PLACEMENT_3D('',#309,#252,#253);
#210=AXIS2_PLACEMENT_3D('',#310,#254,#255);
#211=AXIS2_PLACEMENT_3D('',#312,#256,#257);
#212=AXIS2_PLACEMENT_3D('',#314,#258,#259);
#213=AXIS2_PLACEMENT_3D('',#315,#260,#261);
#214=AXIS2_PLACEMENT_3D('',#317,#262,#263);
#215=AXIS2_PLACEMENT_3D('',#319,#264,#265);
#216=AXIS2_PLACEMENT_3D('',#320,#266,#267);
#217=AXIS2_PLACEMENT_3D('',#322,#268,#269);
#218=AXIS2_PLACEMENT_3D('',#324,#270,#271);
#219=AXIS2_PLACEMENT_3D('',#325,#272,#273);
#220=AXIS2_PLACEMENT_3D('',#327,#274,#275);
#221=AXIS2_PLACEMENT_3D('',#328,#276,#277);
#222=AXIS2_PLACEMENT_3D('',#329,#278,#279);
#223=AXIS2_PLACEMENT_3D('',#330,#280,#281);
#224=AXIS2_PLACEMENT_3D('',#331,#282,#283);
#225=AXIS2_PLACEMENT_3D('',#333,#284,#285);
#226=AXIS2_PLACEMENT_3D('',#334,#286,#287);
#227=AXIS2_PLACEMENT_3D('',#335,#288,#289);
#228=DIRECTION('',(0.,0.,1.));
#229=DIRECTION('',(1.,0.,0.));
#230=DIRECTION('',(1.,0.,0.));
#231=DIRECTION('',(0.,0.,1.));
#232=DIRECTION('',(1.,0.,0.));
#233=DIRECTION('',(0.,0.,-1.));
#234=DIRECTION('',(1.,0.,0.));
#235=DIRECTION('',(0.,0.,-1.));
#236=DIRECTION('',(1.,0.,0.));
#237=DIRECTION('',(0.,0.,-1.));
#238=DIRECTION('',(1.,0.,0.));
#239=DIRECTION('',(0.,0.,-1.));
#240=DIRECTION('',(1.,0.,0.));
#241=DIRECTION('',(0.,0.,-1.));
#242=DIRECTION('',(1.,0.,0.));
#243=DIRECTION('',(0.,0.,-1.));
#244=DIRECTION('',(1.,0.,0.));
#245=DIRECTION('',(0.,0.,-1.));
#246=DIRECTION('',(-1.,0.,0.));
#247=DIRECTION('',(0.,0.,1.));
#248=DIRECTION('',(-1.,0.,0.));
#249=DIRECTION('',(0.,0.,1.));
#250=DIRECTION('',(-1.,0.,0.));
#251=DIRECTION('',(0.,0.,1.));
#252=DIRECTION('',(-1.,0.,0.));
#253=DIRECTION('',(0.,0.,1.));
#254=DIRECTION('',(-1.,0.,0.));
#255=DIRECTION('',(0.,0.,1.));
#256=DIRECTION('',(-1.,0.,0.));
#257=DIRECTION('',(0.,0.,1.));
#258=DIRECTION('',(1.,0.,0.));
#259=DIRECTION('',(0.,0.,-1.));
#260=DIRECTION('',(-1.,0.,0.));
#261=DIRECTION('',(0.,0.,1.));
#262=DIRECTION('',(-1.,0.,0.));
#263=DIRECTION('',(0.,0.,1.));
#264=DIRECTION('',(1.,0.,0.));
#265=DIRECTION('',(0.,0.,-1.));
#266=DIRECTION('',(-1.,0.,0.));
#267=DIRECTION('',(0.,0.,1.));
#268=DIRECTION('',(1.,0.,0.));
#269=DIRECTION('',(0.,0.,-1.));
#270=DIRECTION('',(1.,0.,0.));
#271=DIRECTION('',(0.,0.,1.));
#272=DIRECTION('',(-1.,0.,0.));
#273=DIRECTION('',(0.,0.,1.));
#274=DIRECTION('',(1.,0.,0.));
#275=DIRECTION('',(0.,0.,1.));
#276=DIRECTION('',(-1.,0.,0.));
#277=DIRECTION('',(0.,0.,1.));
#278=DIRECTION('',(1.,0.,0.));
#279=DIRECTION('',(0.,0.,-1.));
#280=DIRECTION('',(1.,0.,0.));
#281=DIRECTION('',(0.,0.,1.));
#282=DIRECTION('',(-1.,0.,0.));
#283=DIRECTION('',(0.,0.,1.));
#284=DIRECTION('',(-1.,0.,0.));
#285=DIRECTION('',(0.,0.,1.));
#286=DIRECTION('',(-1.,0.,0.));
#287=DIRECTION('',(0.,0.,1.));
#288=DIRECTION('',(-1.,0.,0.));
#289=DIRECTION('',(0.,0.,1.));
#290=CARTESIAN_POINT('',(0.,0.,0.));
#291=CARTESIAN_POINT('',(-60.,0.,0.));
#292=CARTESIAN_POINT('',(13.2604150764194,0.,0.));
#293=CARTESIAN_POINT('',(13.2604150764194,0.,-126.));
#294=CARTESIAN_POINT('',(19.5,0.,0.));
#295=CARTESIAN_POINT('',(19.5,0.,-126.));
#296=CARTESIAN_POINT('',(20.,0.,126.));
#297=CARTESIAN_POINT('',(20.,0.,0.));
#298=CARTESIAN_POINT('',(20.,0.,-125.5));
#299=CARTESIAN_POINT('',(20.,0.,0.));
#300=CARTESIAN_POINT('',(20.,0.,-107.));
#301=CARTESIAN_POINT('',(20.,0.,0.));
#302=CARTESIAN_POINT('',(19.5,0.,0.));
#303=CARTESIAN_POINT('',(19.5,0.,-106.5));
#304=CARTESIAN_POINT('',(0.2,0.,0.));
#305=CARTESIAN_POINT('',(0.2,0.,0.));
#306=CARTESIAN_POINT('',(0.2,0.,109.55));
#307=CARTESIAN_POINT('',(0.,0.,0.));
#308=CARTESIAN_POINT('',(0.,0.,109.75));
#309=CARTESIAN_POINT('',(5.2,0.,0.));
#310=CARTESIAN_POINT('',(5.2,0.,0.));
#311=CARTESIAN_POINT('',(5.2,0.,106.5));
#312=CARTESIAN_POINT('',(5.,0.,0.));
#313=CARTESIAN_POINT('',(5.,0.,106.7));
#314=CARTESIAN_POINT('',(0.,0.,0.));
#315=CARTESIAN_POINT('',(0.,0.,0.));
#316=CARTESIAN_POINT('',(0.,0.,114.));
#317=CARTESIAN_POINT('',(1.,0.,0.));
#318=CARTESIAN_POINT('',(1.,0.,115.));
#319=CARTESIAN_POINT('',(7.85632742307178,0.,0.));
#320=CARTESIAN_POINT('',(11.3810298348476,0.,0.));
#321=CARTESIAN_POINT('',(11.3810298348476,0.,124.684040286651));
#322=CARTESIAN_POINT('',(8.095812505648,0.,0.));
#323=CARTESIAN_POINT('',(8.095812505648,0.,-115.657979856674));
#324=CARTESIAN_POINT('',(-60.,0.,0.));
#325=CARTESIAN_POINT('',(7.15611988486208,0.,0.));
#326=CARTESIAN_POINT('',(7.15611988486208,0.,115.));
#327=CARTESIAN_POINT('',(-60.,0.,0.));
#328=CARTESIAN_POINT('',(7.15611988486208,0.,0.));
#329=CARTESIAN_POINT('',(13.2604150764194,0.,0.));
#330=CARTESIAN_POINT('',(-60.,0.,0.));
#331=CARTESIAN_POINT('',(5.,0.,0.));
#332=CARTESIAN_POINT('',(5.,0.,109.55));
#333=CARTESIAN_POINT('',(5.,0.,106.5));
#334=CARTESIAN_POINT('',(19.5,0.,0.));
#335=CARTESIAN_POINT('',(0.,0.,109.55));
#336=MECHANICAL_DESIGN_GEOMETRIC_PRESENTATION_REPRESENTATION('',(#186),
#337);
#337=(
GEOMETRIC_REPRESENTATION_CONTEXT(3)
GLOBAL_UNCERTAINTY_ASSIGNED_CONTEXT((#338))
GLOBAL_UNIT_ASSIGNED_CONTEXT((#341,#340,#339))
REPRESENTATION_CONTEXT('32.200003.210.320','TOP_LEVEL_ASSEMBLY_PART')
);
#338=UNCERTAINTY_MEASURE_WITH_UNIT(LENGTH_MEASURE(0.005),#341,
'DISTANCE_ACCURACY_VALUE','Maximum Tolerance applied to model');
#339=(
NAMED_UNIT(*)
SI_UNIT($,.STERADIAN.)
SOLID_ANGLE_UNIT()
);
#340=(
NAMED_UNIT(*)
PLANE_ANGLE_UNIT()
SI_UNIT($,.RADIAN.)
);
#341=(
LENGTH_UNIT()
NAMED_UNIT(*)
SI_UNIT(.MILLI.,.METRE.)
);
#342=PRODUCT_DEFINITION_SHAPE('','',#343);
#343=PRODUCT_DEFINITION('','',#345,#344);
#344=PRODUCT_DEFINITION_CONTEXT('',#351,'design');
#345=PRODUCT_DEFINITION_FORMATION_WITH_SPECIFIED_SOURCE('','',#347,
 .NOT_KNOWN.);
#346=PRODUCT_RELATED_PRODUCT_CATEGORY('','',(#347));
#347=PRODUCT('32.200003.210.320','32.200003.210.320',
'32.200003.210.320',(#349));
#348=PRODUCT_CATEGORY('','');
#349=PRODUCT_CONTEXT('',#351,'mechanical');
#350=APPLICATION_PROTOCOL_DEFINITION('international standard',
'automotive_design',2010,#351);
#351=APPLICATION_CONTEXT(
'core data for automotive mechanical design processes');
ENDSEC;
END-ISO-10303-21;
