ISO-10303-21;
HEADER;
/* Generated by software containing ST-Developer
 * from STEP Tools, Inc. (www.steptools.com) 
 */
/* OPTION: strings as raw bytes, not using required /X/ escapes */

FILE_DESCRIPTION(
/* description */ (''),
/* implementation_level */ '2;1');

FILE_NAME(
/* name */ '32.200003.220.320',
/* time_stamp */ '2018-10-08T16:04:47+02:00',
/* author */ ('Murat Coskun Bicak'),
/* organization */ ('Evac AG'),
/* preprocessor_version */ 'ST-DEVELOPER v16.7',
/* originating_system */ 'DEX',
/* authorisation */ $);

FILE_SCHEMA (('AUTOMOTIVE_DESIGN {1 0 10303 214 3 1 1}'));
ENDSEC;

DATA;
#10=PROPERTY_DEFINITION_REPRESENTATION(#14,#12);
#11=PROPERTY_DEFINITION_REPRESENTATION(#15,#13);
#12=REPRESENTATION('',(#16),#263);
#13=REPRESENTATION('',(#17),#263);
#14=PROPERTY_DEFINITION('pmi validation property','',#268);
#15=PROPERTY_DEFINITION('pmi validation property','',#268);
#16=VALUE_REPRESENTATION_ITEM('number of annotations',COUNT_MEASURE(0.));
#17=VALUE_REPRESENTATION_ITEM('number of views',COUNT_MEASURE(0.));
#18=SHAPE_REPRESENTATION_RELATIONSHIP('','',#154,#19);
#19=ADVANCED_BREP_SHAPE_REPRESENTATION('',(#152),#263);
#20=TOROIDAL_SURFACE('',#164,124.,2.);
#21=TOROIDAL_SURFACE('',#174,106.1,0.4);
#22=TOROIDAL_SURFACE('',#178,103.9,0.4);
#23=CONICAL_SURFACE('',#162,116.768475870632,1.22173047639603);
#24=CONICAL_SURFACE('',#168,126.,0.785398163397448);
#25=PLANE('',#159);
#26=PLANE('',#160);
#27=PLANE('',#170);
#28=PLANE('',#176);
#29=ORIENTED_EDGE('',*,*,#51,.T.);
#30=ORIENTED_EDGE('',*,*,#52,.F.);
#31=ORIENTED_EDGE('',*,*,#51,.F.);
#32=ORIENTED_EDGE('',*,*,#53,.T.);
#33=ORIENTED_EDGE('',*,*,#54,.T.);
#34=ORIENTED_EDGE('',*,*,#53,.F.);
#35=ORIENTED_EDGE('',*,*,#55,.T.);
#36=ORIENTED_EDGE('',*,*,#54,.F.);
#37=ORIENTED_EDGE('',*,*,#56,.T.);
#38=ORIENTED_EDGE('',*,*,#55,.F.);
#39=ORIENTED_EDGE('',*,*,#57,.T.);
#40=ORIENTED_EDGE('',*,*,#56,.F.);
#41=ORIENTED_EDGE('',*,*,#58,.T.);
#42=ORIENTED_EDGE('',*,*,#57,.F.);
#43=ORIENTED_EDGE('',*,*,#59,.T.);
#44=ORIENTED_EDGE('',*,*,#58,.F.);
#45=ORIENTED_EDGE('',*,*,#60,.T.);
#46=ORIENTED_EDGE('',*,*,#59,.F.);
#47=ORIENTED_EDGE('',*,*,#61,.T.);
#48=ORIENTED_EDGE('',*,*,#60,.F.);
#49=ORIENTED_EDGE('',*,*,#52,.T.);
#50=ORIENTED_EDGE('',*,*,#61,.F.);
#51=EDGE_CURVE('',#62,#62,#73,.T.);
#52=EDGE_CURVE('',#63,#63,#74,.T.);
#53=EDGE_CURVE('',#64,#64,#75,.T.);
#54=EDGE_CURVE('',#65,#65,#76,.T.);
#55=EDGE_CURVE('',#66,#66,#77,.T.);
#56=EDGE_CURVE('',#67,#67,#78,.T.);
#57=EDGE_CURVE('',#68,#68,#79,.T.);
#58=EDGE_CURVE('',#69,#69,#80,.T.);
#59=EDGE_CURVE('',#70,#70,#81,.T.);
#60=EDGE_CURVE('',#71,#71,#82,.T.);
#61=EDGE_CURVE('',#72,#72,#83,.T.);
#62=VERTEX_POINT('',#230);
#63=VERTEX_POINT('',#232);
#64=VERTEX_POINT('',#236);
#65=VERTEX_POINT('',#239);
#66=VERTEX_POINT('',#242);
#67=VERTEX_POINT('',#245);
#68=VERTEX_POINT('',#248);
#69=VERTEX_POINT('',#251);
#70=VERTEX_POINT('',#254);
#71=VERTEX_POINT('',#257);
#72=VERTEX_POINT('',#260);
#73=CIRCLE('',#157,103.5);
#74=CIRCLE('',#158,103.5);
#75=CIRCLE('',#161,116.768475870632);
#76=CIRCLE('',#163,124.684040286651);
#77=CIRCLE('',#165,126.);
#78=CIRCLE('',#167,126.);
#79=CIRCLE('',#169,125.5);
#80=CIRCLE('',#171,106.5);
#81=CIRCLE('',#173,106.5);
#82=CIRCLE('',#175,106.1);
#83=CIRCLE('',#177,103.9);
#84=EDGE_LOOP('',(#29));
#85=EDGE_LOOP('',(#30));
#86=EDGE_LOOP('',(#31));
#87=EDGE_LOOP('',(#32));
#88=EDGE_LOOP('',(#33));
#89=EDGE_LOOP('',(#34));
#90=EDGE_LOOP('',(#35));
#91=EDGE_LOOP('',(#36));
#92=EDGE_LOOP('',(#37));
#93=EDGE_LOOP('',(#38));
#94=EDGE_LOOP('',(#39));
#95=EDGE_LOOP('',(#40));
#96=EDGE_LOOP('',(#41));
#97=EDGE_LOOP('',(#42));
#98=EDGE_LOOP('',(#43));
#99=EDGE_LOOP('',(#44));
#100=EDGE_LOOP('',(#45));
#101=EDGE_LOOP('',(#46));
#102=EDGE_LOOP('',(#47));
#103=EDGE_LOOP('',(#48));
#104=EDGE_LOOP('',(#49));
#105=EDGE_LOOP('',(#50));
#106=FACE_BOUND('',#84,.T.);
#107=FACE_BOUND('',#85,.T.);
#108=FACE_BOUND('',#86,.T.);
#109=FACE_BOUND('',#87,.T.);
#110=FACE_BOUND('',#88,.T.);
#111=FACE_BOUND('',#89,.T.);
#112=FACE_BOUND('',#90,.T.);
#113=FACE_BOUND('',#91,.T.);
#114=FACE_BOUND('',#92,.T.);
#115=FACE_BOUND('',#93,.T.);
#116=FACE_BOUND('',#94,.T.);
#117=FACE_BOUND('',#95,.T.);
#118=FACE_BOUND('',#96,.T.);
#119=FACE_BOUND('',#97,.T.);
#120=FACE_BOUND('',#98,.T.);
#121=FACE_BOUND('',#99,.T.);
#122=FACE_BOUND('',#100,.T.);
#123=FACE_BOUND('',#101,.T.);
#124=FACE_BOUND('',#102,.T.);
#125=FACE_BOUND('',#103,.T.);
#126=FACE_BOUND('',#104,.T.);
#127=FACE_BOUND('',#105,.T.);
#128=CYLINDRICAL_SURFACE('',#156,103.5);
#129=CYLINDRICAL_SURFACE('',#166,126.);
#130=CYLINDRICAL_SURFACE('',#172,106.5);
#131=ADVANCED_FACE('',(#106,#107),#128,.T.);
#132=ADVANCED_FACE('',(#108),#25,.T.);
#133=ADVANCED_FACE('',(#109),#26,.T.);
#134=ADVANCED_FACE('',(#110,#111),#23,.T.);
#135=ADVANCED_FACE('',(#112,#113),#20,.T.);
#136=ADVANCED_FACE('',(#114,#115),#129,.T.);
#137=ADVANCED_FACE('',(#116,#117),#24,.T.);
#138=ADVANCED_FACE('',(#118,#119),#27,.T.);
#139=ADVANCED_FACE('',(#120,#121),#130,.F.);
#140=ADVANCED_FACE('',(#122,#123),#21,.F.);
#141=ADVANCED_FACE('',(#124,#125),#28,.T.);
#142=ADVANCED_FACE('',(#126,#127),#22,.F.);
#143=CLOSED_SHELL('',(#131,#132,#133,#134,#135,#136,#137,#138,#139,#140,
#141,#142));
#144=STYLED_ITEM('',(#145),#152);
#145=PRESENTATION_STYLE_ASSIGNMENT((#146));
#146=SURFACE_STYLE_USAGE(.BOTH.,#147);
#147=SURFACE_SIDE_STYLE('',(#148));
#148=SURFACE_STYLE_FILL_AREA(#149);
#149=FILL_AREA_STYLE('',(#150));
#150=FILL_AREA_STYLE_COLOUR('',#151);
#151=COLOUR_RGB('',0.752941191196442,0.752941191196442,0.752941191196442);
#152=MANIFOLD_SOLID_BREP('',#143);
#153=SHAPE_DEFINITION_REPRESENTATION(#268,#154);
#154=SHAPE_REPRESENTATION('32.200003.220.320',(#155),#263);
#155=AXIS2_PLACEMENT_3D('',#227,#179,#180);
#156=AXIS2_PLACEMENT_3D('',#228,#181,#182);
#157=AXIS2_PLACEMENT_3D('',#229,#183,#184);
#158=AXIS2_PLACEMENT_3D('',#231,#185,#186);
#159=AXIS2_PLACEMENT_3D('',#233,#187,#188);
#160=AXIS2_PLACEMENT_3D('',#234,#189,#190);
#161=AXIS2_PLACEMENT_3D('',#235,#191,#192);
#162=AXIS2_PLACEMENT_3D('',#237,#193,#194);
#163=AXIS2_PLACEMENT_3D('',#238,#195,#196);
#164=AXIS2_PLACEMENT_3D('',#240,#197,#198);
#165=AXIS2_PLACEMENT_3D('',#241,#199,#200);
#166=AXIS2_PLACEMENT_3D('',#243,#201,#202);
#167=AXIS2_PLACEMENT_3D('',#244,#203,#204);
#168=AXIS2_PLACEMENT_3D('',#246,#205,#206);
#169=AXIS2_PLACEMENT_3D('',#247,#207,#208);
#170=AXIS2_PLACEMENT_3D('',#249,#209,#210);
#171=AXIS2_PLACEMENT_3D('',#250,#211,#212);
#172=AXIS2_PLACEMENT_3D('',#252,#213,#214);
#173=AXIS2_PLACEMENT_3D('',#253,#215,#216);
#174=AXIS2_PLACEMENT_3D('',#255,#217,#218);
#175=AXIS2_PLACEMENT_3D('',#256,#219,#220);
#176=AXIS2_PLACEMENT_3D('',#258,#221,#222);
#177=AXIS2_PLACEMENT_3D('',#259,#223,#224);
#178=AXIS2_PLACEMENT_3D('',#261,#225,#226);
#179=DIRECTION('',(0.,0.,1.));
#180=DIRECTION('',(1.,0.,0.));
#181=DIRECTION('',(-1.,0.,0.));
#182=DIRECTION('',(0.,0.,1.));
#183=DIRECTION('',(-1.,0.,0.));
#184=DIRECTION('',(0.,0.,1.));
#185=DIRECTION('',(-1.,0.,0.));
#186=DIRECTION('',(0.,0.,1.));
#187=DIRECTION('',(1.,0.,0.));
#188=DIRECTION('',(0.,0.,-1.));
#189=DIRECTION('',(-1.,0.,0.));
#190=DIRECTION('',(0.,0.,1.));
#191=DIRECTION('',(-1.,0.,0.));
#192=DIRECTION('',(0.,0.,1.));
#193=DIRECTION('',(1.,0.,0.));
#194=DIRECTION('',(0.,0.,-1.));
#195=DIRECTION('',(-1.,0.,0.));
#196=DIRECTION('',(0.,0.,1.));
#197=DIRECTION('',(-1.,0.,0.));
#198=DIRECTION('',(0.,0.,1.));
#199=DIRECTION('',(-1.,0.,0.));
#200=DIRECTION('',(0.,0.,1.));
#201=DIRECTION('',(-1.,0.,0.));
#202=DIRECTION('',(0.,0.,1.));
#203=DIRECTION('',(-1.,0.,0.));
#204=DIRECTION('',(0.,0.,1.));
#205=DIRECTION('',(-1.,0.,0.));
#206=DIRECTION('',(0.,0.,1.));
#207=DIRECTION('',(-1.,0.,0.));
#208=DIRECTION('',(0.,0.,1.));
#209=DIRECTION('',(1.,0.,0.));
#210=DIRECTION('',(0.,0.,-1.));
#211=DIRECTION('',(-1.,0.,0.));
#212=DIRECTION('',(0.,0.,1.));
#213=DIRECTION('',(-1.,0.,0.));
#214=DIRECTION('',(0.,0.,1.));
#215=DIRECTION('',(-1.,0.,0.));
#216=DIRECTION('',(0.,0.,1.));
#217=DIRECTION('',(-1.,0.,0.));
#218=DIRECTION('',(0.,0.,1.));
#219=DIRECTION('',(-1.,0.,0.));
#220=DIRECTION('',(0.,0.,1.));
#221=DIRECTION('',(1.,0.,0.));
#222=DIRECTION('',(0.,0.,-1.));
#223=DIRECTION('',(-1.,0.,0.));
#224=DIRECTION('',(0.,0.,1.));
#225=DIRECTION('',(-1.,0.,0.));
#226=DIRECTION('',(0.,0.,1.));
#227=CARTESIAN_POINT('',(0.,0.,0.));
#228=CARTESIAN_POINT('',(-60.,0.,0.));
#229=CARTESIAN_POINT('',(5.75000000000001,0.,0.));
#230=CARTESIAN_POINT('',(5.75000000000001,0.,103.5));
#231=CARTESIAN_POINT('',(3.15000000000001,0.,0.));
#232=CARTESIAN_POINT('',(3.15000000000001,0.,103.5));
#233=CARTESIAN_POINT('',(5.75000000000001,0.,103.5));
#234=CARTESIAN_POINT('',(-5.75000000000002,0.,-6.93889390390723E-15));
#235=CARTESIAN_POINT('',(-5.75000000000001,0.,0.));
#236=CARTESIAN_POINT('',(-5.75000000000001,0.,116.768475870632));
#237=CARTESIAN_POINT('',(-5.75000000000001,0.,0.));
#238=CARTESIAN_POINT('',(-2.8689701651524,0.,0.));
#239=CARTESIAN_POINT('',(-2.8689701651524,0.,124.684040286651));
#240=CARTESIAN_POINT('',(-0.989584923580584,0.,0.));
#241=CARTESIAN_POINT('',(-0.989584923580582,0.,0.));
#242=CARTESIAN_POINT('',(-0.989584923580582,0.,126.));
#243=CARTESIAN_POINT('',(-60.,0.,0.));
#244=CARTESIAN_POINT('',(5.25,0.,0.));
#245=CARTESIAN_POINT('',(5.25,0.,126.));
#246=CARTESIAN_POINT('',(5.25,0.,0.));
#247=CARTESIAN_POINT('',(5.75000000000001,0.,0.));
#248=CARTESIAN_POINT('',(5.75000000000001,0.,125.5));
#249=CARTESIAN_POINT('',(5.75000000000001,0.,125.5));
#250=CARTESIAN_POINT('',(5.75000000000001,0.,0.));
#251=CARTESIAN_POINT('',(5.75000000000001,0.,106.5));
#252=CARTESIAN_POINT('',(-60.,0.,0.));
#253=CARTESIAN_POINT('',(3.15000000000001,0.,0.));
#254=CARTESIAN_POINT('',(3.15000000000001,0.,106.5));
#255=CARTESIAN_POINT('',(3.15000000000001,0.,0.));
#256=CARTESIAN_POINT('',(2.75,0.,0.));
#257=CARTESIAN_POINT('',(2.75,0.,106.1));
#258=CARTESIAN_POINT('',(2.75000000000001,0.,106.1));
#259=CARTESIAN_POINT('',(2.75000000000002,0.,0.));
#260=CARTESIAN_POINT('',(2.75000000000002,0.,103.9));
#261=CARTESIAN_POINT('',(3.15000000000001,0.,0.));
#262=MECHANICAL_DESIGN_GEOMETRIC_PRESENTATION_REPRESENTATION('',(#144),
#263);
#263=(
GEOMETRIC_REPRESENTATION_CONTEXT(3)
GLOBAL_UNCERTAINTY_ASSIGNED_CONTEXT((#264))
GLOBAL_UNIT_ASSIGNED_CONTEXT((#267,#266,#265))
REPRESENTATION_CONTEXT('32.200003.220.320','TOP_LEVEL_ASSEMBLY_PART')
);
#264=UNCERTAINTY_MEASURE_WITH_UNIT(LENGTH_MEASURE(0.005),#267,
'DISTANCE_ACCURACY_VALUE','Maximum Tolerance applied to model');
#265=(
NAMED_UNIT(*)
SI_UNIT($,.STERADIAN.)
SOLID_ANGLE_UNIT()
);
#266=(
NAMED_UNIT(*)
PLANE_ANGLE_UNIT()
SI_UNIT($,.RADIAN.)
);
#267=(
LENGTH_UNIT()
NAMED_UNIT(*)
SI_UNIT(.MILLI.,.METRE.)
);
#268=PRODUCT_DEFINITION_SHAPE('','',#269);
#269=PRODUCT_DEFINITION('','',#271,#270);
#270=PRODUCT_DEFINITION_CONTEXT('',#277,'design');
#271=PRODUCT_DEFINITION_FORMATION_WITH_SPECIFIED_SOURCE('','',#273,
 .NOT_KNOWN.);
#272=PRODUCT_RELATED_PRODUCT_CATEGORY('','',(#273));
#273=PRODUCT('32.200003.220.320','32.200003.220.320',
'32.200003.220.320',(#275));
#274=PRODUCT_CATEGORY('','');
#275=PRODUCT_CONTEXT('',#277,'mechanical');
#276=APPLICATION_PROTOCOL_DEFINITION('international standard',
'automotive_design',2010,#277);
#277=APPLICATION_CONTEXT(
'core data for automotive mechanical design processes');
ENDSEC;
END-ISO-10303-21;
