ISO-10303-21;
HEADER;
/* Generated by software containing ST-Developer
 * from STEP Tools, Inc. (www.steptools.com) 
 */
/* OPTION: strings as raw bytes, not using required /X/ escapes */

FILE_DESCRIPTION(
/* description */ (''),
/* implementation_level */ '2;1');

FILE_NAME(
/* name */ '32.250003.210.325',
/* time_stamp */ '2018-10-08T14:14:48+02:00',
/* author */ ('Murat Coskun Bicak'),
/* organization */ ('Evac AG'),
/* preprocessor_version */ 'ST-DEVELOPER v16.7',
/* originating_system */ 'DEX',
/* authorisation */ $);

FILE_SCHEMA (('AUTOMOTIVE_DESIGN {1 0 10303 214 3 1 1}'));
ENDSEC;

DATA;
#10=PROPERTY_DEFINITION_REPRESENTATION(#14,#12);
#11=PROPERTY_DEFINITION_REPRESENTATION(#15,#13);
#12=REPRESENTATION('',(#16),#337);
#13=REPRESENTATION('',(#17),#337);
#14=PROPERTY_DEFINITION('pmi validation property','',#342);
#15=PROPERTY_DEFINITION('pmi validation property','',#342);
#16=VALUE_REPRESENTATION_ITEM('number of annotations',COUNT_MEASURE(0.));
#17=VALUE_REPRESENTATION_ITEM('number of views',COUNT_MEASURE(0.));
#18=SHAPE_REPRESENTATION_RELATIONSHIP('','',#196,#19);
#19=ADVANCED_BREP_SHAPE_REPRESENTATION('',(#194),#337);
#20=CONICAL_SURFACE('',#207,138.5,0.785398163397448);
#21=CONICAL_SURFACE('',#210,130.5,0.785398163397448);
#22=CONICAL_SURFACE('',#213,136.5,0.785398163397448);
#23=CONICAL_SURFACE('',#216,139.5,1.22173047639603);
#24=CONICAL_SURFACE('',#221,150.5,0.785398163397448);
#25=CONICAL_SURFACE('',#222,131.,0.785398163397448);
#26=TOROIDAL_SURFACE('',#204,140.5,1.);
#27=TOROIDAL_SURFACE('',#226,148.5,2.);
#28=CYLINDRICAL_SURFACE('',#201,150.5);
#29=CYLINDRICAL_SURFACE('',#218,139.5);
#30=CYLINDRICAL_SURFACE('',#219,130.5);
#31=CYLINDRICAL_SURFACE('',#223,136.5);
#32=ORIENTED_EDGE('',*,*,#62,.T.);
#33=ORIENTED_EDGE('',*,*,#63,.F.);
#34=ORIENTED_EDGE('',*,*,#64,.F.);
#35=ORIENTED_EDGE('',*,*,#65,.T.);
#36=ORIENTED_EDGE('',*,*,#66,.F.);
#37=ORIENTED_EDGE('',*,*,#67,.F.);
#38=ORIENTED_EDGE('',*,*,#68,.F.);
#39=ORIENTED_EDGE('',*,*,#69,.T.);
#40=ORIENTED_EDGE('',*,*,#70,.F.);
#41=ORIENTED_EDGE('',*,*,#71,.T.);
#42=ORIENTED_EDGE('',*,*,#72,.F.);
#43=ORIENTED_EDGE('',*,*,#73,.T.);
#44=ORIENTED_EDGE('',*,*,#67,.T.);
#45=ORIENTED_EDGE('',*,*,#74,.T.);
#46=ORIENTED_EDGE('',*,*,#69,.F.);
#47=ORIENTED_EDGE('',*,*,#66,.T.);
#48=ORIENTED_EDGE('',*,*,#75,.T.);
#49=ORIENTED_EDGE('',*,*,#70,.T.);
#50=ORIENTED_EDGE('',*,*,#64,.T.);
#51=ORIENTED_EDGE('',*,*,#62,.F.);
#52=ORIENTED_EDGE('',*,*,#63,.T.);
#53=ORIENTED_EDGE('',*,*,#75,.F.);
#54=ORIENTED_EDGE('',*,*,#76,.F.);
#55=ORIENTED_EDGE('',*,*,#72,.T.);
#56=ORIENTED_EDGE('',*,*,#76,.T.);
#57=ORIENTED_EDGE('',*,*,#71,.F.);
#58=ORIENTED_EDGE('',*,*,#74,.F.);
#59=ORIENTED_EDGE('',*,*,#65,.F.);
#60=ORIENTED_EDGE('',*,*,#73,.F.);
#61=ORIENTED_EDGE('',*,*,#68,.T.);
#62=EDGE_CURVE('',#77,#77,#92,.T.);
#63=EDGE_CURVE('',#78,#78,#93,.T.);
#64=EDGE_CURVE('',#79,#79,#94,.T.);
#65=EDGE_CURVE('',#80,#80,#95,.T.);
#66=EDGE_CURVE('',#81,#81,#96,.T.);
#67=EDGE_CURVE('',#82,#82,#97,.T.);
#68=EDGE_CURVE('',#83,#83,#98,.T.);
#69=EDGE_CURVE('',#84,#84,#99,.T.);
#70=EDGE_CURVE('',#85,#85,#100,.T.);
#71=EDGE_CURVE('',#86,#86,#101,.T.);
#72=EDGE_CURVE('',#87,#87,#102,.T.);
#73=EDGE_CURVE('',#88,#88,#103,.T.);
#74=EDGE_CURVE('',#89,#89,#104,.T.);
#75=EDGE_CURVE('',#90,#90,#105,.T.);
#76=EDGE_CURVE('',#91,#91,#106,.T.);
#77=VERTEX_POINT('',#293);
#78=VERTEX_POINT('',#295);
#79=VERTEX_POINT('',#298);
#80=VERTEX_POINT('',#300);
#81=VERTEX_POINT('',#303);
#82=VERTEX_POINT('',#305);
#83=VERTEX_POINT('',#308);
#84=VERTEX_POINT('',#310);
#85=VERTEX_POINT('',#313);
#86=VERTEX_POINT('',#315);
#87=VERTEX_POINT('',#318);
#88=VERTEX_POINT('',#320);
#89=VERTEX_POINT('',#323);
#90=VERTEX_POINT('',#327);
#91=VERTEX_POINT('',#332);
#92=CIRCLE('',#199,150.);
#93=CIRCLE('',#200,131.);
#94=CIRCLE('',#202,150.5);
#95=CIRCLE('',#203,150.5);
#96=CIRCLE('',#205,139.5);
#97=CIRCLE('',#206,140.157979856674);
#98=CIRCLE('',#208,138.5);
#99=CIRCLE('',#209,139.5);
#100=CIRCLE('',#211,130.5);
#101=CIRCLE('',#212,130.7);
#102=CIRCLE('',#214,136.5);
#103=CIRCLE('',#215,136.7);
#104=CIRCLE('',#217,149.184040286651);
#105=CIRCLE('',#220,130.5);
#106=CIRCLE('',#224,136.5);
#107=EDGE_LOOP('',(#32));
#108=EDGE_LOOP('',(#33));
#109=EDGE_LOOP('',(#34));
#110=EDGE_LOOP('',(#35));
#111=EDGE_LOOP('',(#36));
#112=EDGE_LOOP('',(#37));
#113=EDGE_LOOP('',(#38));
#114=EDGE_LOOP('',(#39));
#115=EDGE_LOOP('',(#40));
#116=EDGE_LOOP('',(#41));
#117=EDGE_LOOP('',(#42));
#118=EDGE_LOOP('',(#43));
#119=EDGE_LOOP('',(#44));
#120=EDGE_LOOP('',(#45));
#121=EDGE_LOOP('',(#46));
#122=EDGE_LOOP('',(#47));
#123=EDGE_LOOP('',(#48));
#124=EDGE_LOOP('',(#49));
#125=EDGE_LOOP('',(#50));
#126=EDGE_LOOP('',(#51));
#127=EDGE_LOOP('',(#52));
#128=EDGE_LOOP('',(#53));
#129=EDGE_LOOP('',(#54));
#130=EDGE_LOOP('',(#55));
#131=EDGE_LOOP('',(#56));
#132=EDGE_LOOP('',(#57));
#133=EDGE_LOOP('',(#58));
#134=EDGE_LOOP('',(#59));
#135=EDGE_LOOP('',(#60));
#136=EDGE_LOOP('',(#61));
#137=FACE_BOUND('',#107,.T.);
#138=FACE_BOUND('',#108,.T.);
#139=FACE_BOUND('',#109,.T.);
#140=FACE_BOUND('',#110,.T.);
#141=FACE_BOUND('',#111,.T.);
#142=FACE_BOUND('',#112,.T.);
#143=FACE_BOUND('',#113,.T.);
#144=FACE_BOUND('',#114,.T.);
#145=FACE_BOUND('',#115,.T.);
#146=FACE_BOUND('',#116,.T.);
#147=FACE_BOUND('',#117,.T.);
#148=FACE_BOUND('',#118,.T.);
#149=FACE_BOUND('',#119,.T.);
#150=FACE_BOUND('',#120,.T.);
#151=FACE_BOUND('',#121,.T.);
#152=FACE_BOUND('',#122,.T.);
#153=FACE_BOUND('',#123,.T.);
#154=FACE_BOUND('',#124,.T.);
#155=FACE_BOUND('',#125,.T.);
#156=FACE_BOUND('',#126,.T.);
#157=FACE_BOUND('',#127,.T.);
#158=FACE_BOUND('',#128,.T.);
#159=FACE_BOUND('',#129,.T.);
#160=FACE_BOUND('',#130,.T.);
#161=FACE_BOUND('',#131,.T.);
#162=FACE_BOUND('',#132,.T.);
#163=FACE_BOUND('',#133,.T.);
#164=FACE_BOUND('',#134,.T.);
#165=FACE_BOUND('',#135,.T.);
#166=FACE_BOUND('',#136,.T.);
#167=PLANE('',#198);
#168=PLANE('',#225);
#169=PLANE('',#227);
#170=ADVANCED_FACE('',(#137,#138),#167,.T.);
#171=ADVANCED_FACE('',(#139,#140),#28,.T.);
#172=ADVANCED_FACE('',(#141,#142),#26,.F.);
#173=ADVANCED_FACE('',(#143,#144),#20,.T.);
#174=ADVANCED_FACE('',(#145,#146),#21,.F.);
#175=ADVANCED_FACE('',(#147,#148),#22,.F.);
#176=ADVANCED_FACE('',(#149,#150),#23,.T.);
#177=ADVANCED_FACE('',(#151,#152),#29,.T.);
#178=ADVANCED_FACE('',(#153,#154),#30,.F.);
#179=ADVANCED_FACE('',(#155,#156),#24,.T.);
#180=ADVANCED_FACE('',(#157,#158),#25,.F.);
#181=ADVANCED_FACE('',(#159,#160),#31,.F.);
#182=ADVANCED_FACE('',(#161,#162),#168,.T.);
#183=ADVANCED_FACE('',(#163,#164),#27,.T.);
#184=ADVANCED_FACE('',(#165,#166),#169,.T.);
#185=CLOSED_SHELL('',(#170,#171,#172,#173,#174,#175,#176,#177,#178,#179,
#180,#181,#182,#183,#184));
#186=STYLED_ITEM('',(#187),#194);
#187=PRESENTATION_STYLE_ASSIGNMENT((#188));
#188=SURFACE_STYLE_USAGE(.BOTH.,#189);
#189=SURFACE_SIDE_STYLE('',(#190));
#190=SURFACE_STYLE_FILL_AREA(#191);
#191=FILL_AREA_STYLE('',(#192));
#192=FILL_AREA_STYLE_COLOUR('',#193);
#193=COLOUR_RGB('',0.517647087574005,0.517647087574005,0.517647087574005);
#194=MANIFOLD_SOLID_BREP('1',#185);
#195=SHAPE_DEFINITION_REPRESENTATION(#342,#196);
#196=SHAPE_REPRESENTATION('32.250003.210.325',(#197),#337);
#197=AXIS2_PLACEMENT_3D('',#290,#228,#229);
#198=AXIS2_PLACEMENT_3D('',#291,#230,#231);
#199=AXIS2_PLACEMENT_3D('',#292,#232,#233);
#200=AXIS2_PLACEMENT_3D('',#294,#234,#235);
#201=AXIS2_PLACEMENT_3D('',#296,#236,#237);
#202=AXIS2_PLACEMENT_3D('',#297,#238,#239);
#203=AXIS2_PLACEMENT_3D('',#299,#240,#241);
#204=AXIS2_PLACEMENT_3D('',#301,#242,#243);
#205=AXIS2_PLACEMENT_3D('',#302,#244,#245);
#206=AXIS2_PLACEMENT_3D('',#304,#246,#247);
#207=AXIS2_PLACEMENT_3D('',#306,#248,#249);
#208=AXIS2_PLACEMENT_3D('',#307,#250,#251);
#209=AXIS2_PLACEMENT_3D('',#309,#252,#253);
#210=AXIS2_PLACEMENT_3D('',#311,#254,#255);
#211=AXIS2_PLACEMENT_3D('',#312,#256,#257);
#212=AXIS2_PLACEMENT_3D('',#314,#258,#259);
#213=AXIS2_PLACEMENT_3D('',#316,#260,#261);
#214=AXIS2_PLACEMENT_3D('',#317,#262,#263);
#215=AXIS2_PLACEMENT_3D('',#319,#264,#265);
#216=AXIS2_PLACEMENT_3D('',#321,#266,#267);
#217=AXIS2_PLACEMENT_3D('',#322,#268,#269);
#218=AXIS2_PLACEMENT_3D('',#324,#270,#271);
#219=AXIS2_PLACEMENT_3D('',#325,#272,#273);
#220=AXIS2_PLACEMENT_3D('',#326,#274,#275);
#221=AXIS2_PLACEMENT_3D('',#328,#276,#277);
#222=AXIS2_PLACEMENT_3D('',#329,#278,#279);
#223=AXIS2_PLACEMENT_3D('',#330,#280,#281);
#224=AXIS2_PLACEMENT_3D('',#331,#282,#283);
#225=AXIS2_PLACEMENT_3D('',#333,#284,#285);
#226=AXIS2_PLACEMENT_3D('',#334,#286,#287);
#227=AXIS2_PLACEMENT_3D('',#335,#288,#289);
#228=DIRECTION('',(0.,0.,1.));
#229=DIRECTION('',(1.,0.,0.));
#230=DIRECTION('',(1.,0.,0.));
#231=DIRECTION('',(0.,0.,-1.));
#232=DIRECTION('',(1.,0.,0.));
#233=DIRECTION('',(0.,0.,-1.));
#234=DIRECTION('',(1.,0.,0.));
#235=DIRECTION('',(0.,0.,-1.));
#236=DIRECTION('',(1.,0.,0.));
#237=DIRECTION('',(0.,0.,1.));
#238=DIRECTION('',(1.,0.,0.));
#239=DIRECTION('',(0.,0.,-1.));
#240=DIRECTION('',(1.,0.,0.));
#241=DIRECTION('',(0.,0.,-1.));
#242=DIRECTION('',(-1.,0.,0.));
#243=DIRECTION('',(0.,0.,1.));
#244=DIRECTION('',(-1.,0.,0.));
#245=DIRECTION('',(0.,0.,1.));
#246=DIRECTION('',(1.,0.,0.));
#247=DIRECTION('',(0.,0.,-1.));
#248=DIRECTION('',(1.,0.,0.));
#249=DIRECTION('',(0.,0.,-1.));
#250=DIRECTION('',(-1.,0.,0.));
#251=DIRECTION('',(0.,0.,1.));
#252=DIRECTION('',(-1.,0.,0.));
#253=DIRECTION('',(0.,0.,1.));
#254=DIRECTION('',(-1.,0.,0.));
#255=DIRECTION('',(0.,0.,1.));
#256=DIRECTION('',(-1.,0.,0.));
#257=DIRECTION('',(0.,0.,1.));
#258=DIRECTION('',(-1.,0.,0.));
#259=DIRECTION('',(0.,0.,1.));
#260=DIRECTION('',(-1.,0.,0.));
#261=DIRECTION('',(0.,0.,1.));
#262=DIRECTION('',(-1.,0.,0.));
#263=DIRECTION('',(0.,0.,1.));
#264=DIRECTION('',(-1.,0.,0.));
#265=DIRECTION('',(0.,0.,1.));
#266=DIRECTION('',(1.,0.,0.));
#267=DIRECTION('',(0.,0.,-1.));
#268=DIRECTION('',(-1.,0.,0.));
#269=DIRECTION('',(0.,0.,1.));
#270=DIRECTION('',(1.,0.,0.));
#271=DIRECTION('',(0.,0.,1.));
#272=DIRECTION('',(1.,0.,0.));
#273=DIRECTION('',(0.,0.,1.));
#274=DIRECTION('',(1.,0.,0.));
#275=DIRECTION('',(0.,0.,-1.));
#276=DIRECTION('',(-1.,0.,0.));
#277=DIRECTION('',(0.,0.,1.));
#278=DIRECTION('',(1.,0.,0.));
#279=DIRECTION('',(0.,0.,-1.));
#280=DIRECTION('',(1.,0.,0.));
#281=DIRECTION('',(0.,0.,1.));
#282=DIRECTION('',(-1.,0.,0.));
#283=DIRECTION('',(0.,0.,1.));
#284=DIRECTION('',(-1.,0.,0.));
#285=DIRECTION('',(0.,0.,1.));
#286=DIRECTION('',(1.,0.,0.));
#287=DIRECTION('',(0.,0.,-1.));
#288=DIRECTION('',(-1.,0.,0.));
#289=DIRECTION('',(0.,0.,1.));
#290=CARTESIAN_POINT('',(0.,0.,0.));
#291=CARTESIAN_POINT('',(30.5248444855661,0.,150.5));
#292=CARTESIAN_POINT('',(30.5248444855661,0.,0.));
#293=CARTESIAN_POINT('',(30.5248444855661,0.,-150.));
#294=CARTESIAN_POINT('',(30.5248444855661,0.,0.));
#295=CARTESIAN_POINT('',(30.5248444855661,0.,-131.));
#296=CARTESIAN_POINT('',(-60.,0.,0.));
#297=CARTESIAN_POINT('',(30.0248444855661,0.,0.));
#298=CARTESIAN_POINT('',(30.0248444855661,0.,-150.5));
#299=CARTESIAN_POINT('',(23.7852595619855,0.,0.));
#300=CARTESIAN_POINT('',(23.7852595619855,0.,-150.5));
#301=CARTESIAN_POINT('',(17.6809643704282,0.,0.));
#302=CARTESIAN_POINT('',(17.6809643704282,0.,0.));
#303=CARTESIAN_POINT('',(17.6809643704282,0.,139.5));
#304=CARTESIAN_POINT('',(18.6206569912141,0.,0.));
#305=CARTESIAN_POINT('',(18.6206569912141,0.,-140.157979856674));
#306=CARTESIAN_POINT('',(10.5248444855661,0.,0.));
#307=CARTESIAN_POINT('',(10.5248444855661,0.,0.));
#308=CARTESIAN_POINT('',(10.5248444855661,0.,138.5));
#309=CARTESIAN_POINT('',(11.5248444855661,0.,0.));
#310=CARTESIAN_POINT('',(11.5248444855661,0.,139.5));
#311=CARTESIAN_POINT('',(15.7248444855661,0.,0.));
#312=CARTESIAN_POINT('',(15.7248444855661,0.,0.));
#313=CARTESIAN_POINT('',(15.7248444855661,0.,130.5));
#314=CARTESIAN_POINT('',(15.524844485566,0.,0.));
#315=CARTESIAN_POINT('',(15.524844485566,0.,130.7));
#316=CARTESIAN_POINT('',(10.7248444855661,0.,0.));
#317=CARTESIAN_POINT('',(10.7248444855661,0.,0.));
#318=CARTESIAN_POINT('',(10.7248444855661,0.,136.5));
#319=CARTESIAN_POINT('',(10.5248444855661,0.,0.));
#320=CARTESIAN_POINT('',(10.5248444855661,0.,136.7));
#321=CARTESIAN_POINT('',(18.3811719086379,0.,0.));
#322=CARTESIAN_POINT('',(21.9058743204137,0.,0.));
#323=CARTESIAN_POINT('',(21.9058743204137,0.,149.184040286651));
#324=CARTESIAN_POINT('',(-60.,0.,0.));
#325=CARTESIAN_POINT('',(-60.,0.,0.));
#326=CARTESIAN_POINT('',(30.0248444855661,0.,0.));
#327=CARTESIAN_POINT('',(30.0248444855661,0.,-130.5));
#328=CARTESIAN_POINT('',(30.0248444855661,0.,0.));
#329=CARTESIAN_POINT('',(30.5248444855661,0.,0.));
#330=CARTESIAN_POINT('',(-60.,0.,0.));
#331=CARTESIAN_POINT('',(15.524844485566,0.,0.));
#332=CARTESIAN_POINT('',(15.524844485566,0.,136.5));
#333=CARTESIAN_POINT('',(15.524844485566,0.,130.5));
#334=CARTESIAN_POINT('',(23.7852595619855,0.,0.));
#335=CARTESIAN_POINT('',(10.5248444855661,0.,139.5));
#336=MECHANICAL_DESIGN_GEOMETRIC_PRESENTATION_REPRESENTATION('',(#186),
#337);
#337=(
GEOMETRIC_REPRESENTATION_CONTEXT(3)
GLOBAL_UNCERTAINTY_ASSIGNED_CONTEXT((#338))
GLOBAL_UNIT_ASSIGNED_CONTEXT((#341,#340,#339))
REPRESENTATION_CONTEXT('32.250003.210.325','TOP_LEVEL_ASSEMBLY_PART')
);
#338=UNCERTAINTY_MEASURE_WITH_UNIT(LENGTH_MEASURE(0.005),#341,
'DISTANCE_ACCURACY_VALUE','Maximum Tolerance applied to model');
#339=(
NAMED_UNIT(*)
SI_UNIT($,.STERADIAN.)
SOLID_ANGLE_UNIT()
);
#340=(
NAMED_UNIT(*)
PLANE_ANGLE_UNIT()
SI_UNIT($,.RADIAN.)
);
#341=(
LENGTH_UNIT()
NAMED_UNIT(*)
SI_UNIT(.MILLI.,.METRE.)
);
#342=PRODUCT_DEFINITION_SHAPE('','',#343);
#343=PRODUCT_DEFINITION('','',#345,#344);
#344=PRODUCT_DEFINITION_CONTEXT('',#351,'design');
#345=PRODUCT_DEFINITION_FORMATION_WITH_SPECIFIED_SOURCE('','',#347,
 .NOT_KNOWN.);
#346=PRODUCT_RELATED_PRODUCT_CATEGORY('','',(#347));
#347=PRODUCT('32.250003.210.325','32.250003.210.325',
'32.250003.210.325',(#349));
#348=PRODUCT_CATEGORY('','');
#349=PRODUCT_CONTEXT('',#351,'mechanical');
#350=APPLICATION_PROTOCOL_DEFINITION('international standard',
'automotive_design',2010,#351);
#351=APPLICATION_CONTEXT(
'core data for automotive mechanical design processes');
ENDSEC;
END-ISO-10303-21;
