ISO-10303-21;
HEADER;
/* Generated by software containing ST-Developer
 * from STEP Tools, Inc. (www.steptools.com) 
 */
/* OPTION: strings as raw bytes, not using required /X/ escapes */

FILE_DESCRIPTION(
/* description */ (''),
/* implementation_level */ '2;1');

FILE_NAME(
/* name */ '33.040005.661.340',
/* time_stamp */ '2019-03-07T09:49:23+01:00',
/* author */ ('Murat Coskun Bicak'),
/* organization */ ('Evac AG'),
/* preprocessor_version */ 'ST-DEVELOPER v16.7',
/* originating_system */ 'DEX',
/* authorisation */ $);

FILE_SCHEMA (('AUTOMOTIVE_DESIGN {1 0 10303 214 3 1 1}'));
ENDSEC;

DATA;
#10=PROPERTY_DEFINITION_REPRESENTATION(#14,#12);
#11=PROPERTY_DEFINITION_REPRESENTATION(#15,#13);
#12=REPRESENTATION('',(#16),#636);
#13=REPRESENTATION('',(#17),#636);
#14=PROPERTY_DEFINITION('pmi validation property','',#645);
#15=PROPERTY_DEFINITION('pmi validation property','',#645);
#16=VALUE_REPRESENTATION_ITEM('number of annotations',COUNT_MEASURE(0.));
#17=VALUE_REPRESENTATION_ITEM('number of views',COUNT_MEASURE(0.));
#18=CONTEXT_DEPENDENT_SHAPE_REPRESENTATION(#26,#647);
#19=CONTEXT_DEPENDENT_SHAPE_REPRESENTATION(#27,#649);
#20=CONTEXT_DEPENDENT_SHAPE_REPRESENTATION(#28,#650);
#21=CONTEXT_DEPENDENT_SHAPE_REPRESENTATION(#29,#651);
#22=NEXT_ASSEMBLY_USAGE_OCCURRENCE('32.040005.640.340-nachbe.',
'32.040005.640.340-nachbe.','32.040005.640.340-nachbe.',#652,#653,'');
#23=NEXT_ASSEMBLY_USAGE_OCCURRENCE('Rohr T DN40','Rohr T DN40',
'Rohr T DN40',#652,#654,'');
#24=NEXT_ASSEMBLY_USAGE_OCCURRENCE('32.040005.640.340-nachbe.',
'32.040005.640.340-nachbe.','32.040005.640.340-nachbe.',#652,#653,'');
#25=NEXT_ASSEMBLY_USAGE_OCCURRENCE('32.040005.640.340-nachbe.',
'32.040005.640.340-nachbe.','32.040005.640.340-nachbe.',#652,#653,'');
#26=(
REPRESENTATION_RELATIONSHIP(' ',' ',#366,#367)
REPRESENTATION_RELATIONSHIP_WITH_TRANSFORMATION(#30)
SHAPE_REPRESENTATION_RELATIONSHIP()
);
#27=(
REPRESENTATION_RELATIONSHIP(' ',' ',#368,#367)
REPRESENTATION_RELATIONSHIP_WITH_TRANSFORMATION(#31)
SHAPE_REPRESENTATION_RELATIONSHIP()
);
#28=(
REPRESENTATION_RELATIONSHIP(' ',' ',#366,#367)
REPRESENTATION_RELATIONSHIP_WITH_TRANSFORMATION(#32)
SHAPE_REPRESENTATION_RELATIONSHIP()
);
#29=(
REPRESENTATION_RELATIONSHIP(' ',' ',#366,#367)
REPRESENTATION_RELATIONSHIP_WITH_TRANSFORMATION(#33)
SHAPE_REPRESENTATION_RELATIONSHIP()
);
#30=ITEM_DEFINED_TRANSFORMATION(' ',' ',#369,#398);
#31=ITEM_DEFINED_TRANSFORMATION(' ',' ',#369,#416);
#32=ITEM_DEFINED_TRANSFORMATION(' ',' ',#369,#417);
#33=ITEM_DEFINED_TRANSFORMATION(' ',' ',#369,#418);
#34=SHAPE_REPRESENTATION_RELATIONSHIP('','',#366,#36);
#35=SHAPE_REPRESENTATION_RELATIONSHIP('','',#368,#37);
#36=ADVANCED_BREP_SHAPE_REPRESENTATION('',(#361),#637);
#37=ADVANCED_BREP_SHAPE_REPRESENTATION('',(#362),#638);
#38=PLANE('',#380);
#39=PLANE('',#388);
#40=PLANE('',#392);
#41=PLANE('',#393);
#42=PLANE('',#394);
#43=PLANE('',#397);
#44=PLANE('',#406);
#45=PLANE('',#412);
#46=PLANE('',#415);
#47=B_SPLINE_CURVE_WITH_KNOTS('',3,(#546,#547,#548,#549),.UNSPECIFIED.,
 .F.,.F.,(4,4),(0.00720263761999097,0.00748557462872224),.UNSPECIFIED.);
#48=B_SPLINE_CURVE_WITH_KNOTS('',3,(#553,#554,#555,#556),.UNSPECIFIED.,
 .F.,.F.,(4,4),(0.00720263761999097,0.00748557462872224),.UNSPECIFIED.);
#49=B_SPLINE_CURVE_WITH_KNOTS('',3,(#572,#573,#574,#575),.UNSPECIFIED.,
 .F.,.F.,(4,4),(0.0013628640093119,0.00164728442651303),.UNSPECIFIED.);
#50=B_SPLINE_CURVE_WITH_KNOTS('',3,(#577,#578,#579,#580),.UNSPECIFIED.,
 .F.,.F.,(4,4),(2.00094894434935E-7,0.0020006029678367),.UNSPECIFIED.);
#51=B_SPLINE_CURVE_WITH_KNOTS('',3,(#582,#583,#584,#585),.UNSPECIFIED.,
 .F.,.F.,(4,4),(0.0013628640093119,0.00164728442651303),.UNSPECIFIED.);
#52=LINE('',#540,#60);
#53=LINE('',#544,#61);
#54=LINE('',#558,#62);
#55=LINE('',#562,#63);
#56=LINE('',#564,#64);
#57=LINE('',#568,#65);
#58=LINE('',#596,#66);
#59=LINE('',#597,#67);
#60=VECTOR('',#435,1000.);
#61=VECTOR('',#438,1000.);
#62=VECTOR('',#445,1000.);
#63=VECTOR('',#448,1000.);
#64=VECTOR('',#451,1000.);
#65=VECTOR('',#454,1000.);
#66=VECTOR('',#473,1000.);
#67=VECTOR('',#474,1000.);
#68=ELLIPSE('',#376,29.2648887430876,27.5);
#69=ELLIPSE('',#401,27.3650324319194,19.35);
#70=ELLIPSE('',#402,27.3650324319194,19.35);
#71=ELLIPSE('',#409,31.4662517628014,22.25);
#72=ELLIPSE('',#410,31.4662517628014,22.25);
#73=CYLINDRICAL_SURFACE('',#375,27.5);
#74=CYLINDRICAL_SURFACE('',#382,24.15);
#75=CYLINDRICAL_SURFACE('',#390,20.);
#76=CYLINDRICAL_SURFACE('',#395,22.25);
#77=CYLINDRICAL_SURFACE('',#399,19.35);
#78=CYLINDRICAL_SURFACE('',#403,19.35);
#79=CYLINDRICAL_SURFACE('',#408,22.25);
#80=CYLINDRICAL_SURFACE('',#413,22.25);
#81=TOROIDAL_SURFACE('',#373,26.,1.5);
#82=TOROIDAL_SURFACE('',#384,23.75,0.4);
#83=ORIENTED_EDGE('',*,*,#155,.F.);
#84=ORIENTED_EDGE('',*,*,#156,.F.);
#85=ORIENTED_EDGE('',*,*,#157,.F.);
#86=ORIENTED_EDGE('',*,*,#155,.T.);
#87=ORIENTED_EDGE('',*,*,#158,.F.);
#88=ORIENTED_EDGE('',*,*,#159,.T.);
#89=ORIENTED_EDGE('',*,*,#160,.F.);
#90=ORIENTED_EDGE('',*,*,#161,.F.);
#91=ORIENTED_EDGE('',*,*,#157,.T.);
#92=ORIENTED_EDGE('',*,*,#160,.T.);
#93=ORIENTED_EDGE('',*,*,#162,.T.);
#94=ORIENTED_EDGE('',*,*,#163,.F.);
#95=ORIENTED_EDGE('',*,*,#164,.F.);
#96=ORIENTED_EDGE('',*,*,#163,.T.);
#97=ORIENTED_EDGE('',*,*,#165,.T.);
#98=ORIENTED_EDGE('',*,*,#166,.F.);
#99=ORIENTED_EDGE('',*,*,#167,.F.);
#100=ORIENTED_EDGE('',*,*,#166,.T.);
#101=ORIENTED_EDGE('',*,*,#168,.T.);
#102=ORIENTED_EDGE('',*,*,#169,.F.);
#103=ORIENTED_EDGE('',*,*,#170,.F.);
#104=ORIENTED_EDGE('',*,*,#171,.F.);
#105=ORIENTED_EDGE('',*,*,#169,.T.);
#106=ORIENTED_EDGE('',*,*,#172,.T.);
#107=ORIENTED_EDGE('',*,*,#173,.F.);
#108=ORIENTED_EDGE('',*,*,#174,.F.);
#109=ORIENTED_EDGE('',*,*,#175,.F.);
#110=ORIENTED_EDGE('',*,*,#171,.T.);
#111=ORIENTED_EDGE('',*,*,#176,.F.);
#112=ORIENTED_EDGE('',*,*,#175,.T.);
#113=ORIENTED_EDGE('',*,*,#177,.T.);
#114=ORIENTED_EDGE('',*,*,#176,.T.);
#115=ORIENTED_EDGE('',*,*,#158,.T.);
#116=ORIENTED_EDGE('',*,*,#178,.F.);
#117=ORIENTED_EDGE('',*,*,#173,.T.);
#118=ORIENTED_EDGE('',*,*,#179,.T.);
#119=ORIENTED_EDGE('',*,*,#179,.F.);
#120=ORIENTED_EDGE('',*,*,#172,.F.);
#121=ORIENTED_EDGE('',*,*,#168,.F.);
#122=ORIENTED_EDGE('',*,*,#165,.F.);
#123=ORIENTED_EDGE('',*,*,#162,.F.);
#124=ORIENTED_EDGE('',*,*,#159,.F.);
#125=ORIENTED_EDGE('',*,*,#161,.T.);
#126=ORIENTED_EDGE('',*,*,#164,.T.);
#127=ORIENTED_EDGE('',*,*,#167,.T.);
#128=ORIENTED_EDGE('',*,*,#170,.T.);
#129=ORIENTED_EDGE('',*,*,#174,.T.);
#130=ORIENTED_EDGE('',*,*,#178,.T.);
#131=ORIENTED_EDGE('',*,*,#180,.T.);
#132=ORIENTED_EDGE('',*,*,#156,.T.);
#133=ORIENTED_EDGE('',*,*,#180,.F.);
#134=ORIENTED_EDGE('',*,*,#177,.F.);
#135=ORIENTED_EDGE('',*,*,#181,.F.);
#136=ORIENTED_EDGE('',*,*,#182,.T.);
#137=ORIENTED_EDGE('',*,*,#183,.T.);
#138=ORIENTED_EDGE('',*,*,#183,.F.);
#139=ORIENTED_EDGE('',*,*,#182,.F.);
#140=ORIENTED_EDGE('',*,*,#184,.T.);
#141=ORIENTED_EDGE('',*,*,#185,.F.);
#142=ORIENTED_EDGE('',*,*,#186,.F.);
#143=ORIENTED_EDGE('',*,*,#185,.T.);
#144=ORIENTED_EDGE('',*,*,#187,.T.);
#145=ORIENTED_EDGE('',*,*,#188,.T.);
#146=ORIENTED_EDGE('',*,*,#189,.F.);
#147=ORIENTED_EDGE('',*,*,#186,.T.);
#148=ORIENTED_EDGE('',*,*,#184,.F.);
#149=ORIENTED_EDGE('',*,*,#189,.T.);
#150=ORIENTED_EDGE('',*,*,#190,.T.);
#151=ORIENTED_EDGE('',*,*,#188,.F.);
#152=ORIENTED_EDGE('',*,*,#187,.F.);
#153=ORIENTED_EDGE('',*,*,#181,.T.);
#154=ORIENTED_EDGE('',*,*,#190,.F.);
#155=EDGE_CURVE('',#191,#191,#221,.T.);
#156=EDGE_CURVE('',#192,#192,#222,.F.);
#157=EDGE_CURVE('',#193,#193,#223,.T.);
#158=EDGE_CURVE('',#194,#195,#68,.T.);
#159=EDGE_CURVE('',#194,#196,#52,.T.);
#160=EDGE_CURVE('',#197,#196,#224,.T.);
#161=EDGE_CURVE('',#195,#197,#53,.T.);
#162=EDGE_CURVE('',#196,#198,#47,.T.);
#163=EDGE_CURVE('',#199,#198,#225,.T.);
#164=EDGE_CURVE('',#197,#199,#48,.T.);
#165=EDGE_CURVE('',#198,#200,#54,.T.);
#166=EDGE_CURVE('',#201,#200,#226,.T.);
#167=EDGE_CURVE('',#199,#201,#55,.T.);
#168=EDGE_CURVE('',#200,#202,#56,.F.);
#169=EDGE_CURVE('',#203,#202,#227,.T.);
#170=EDGE_CURVE('',#201,#203,#57,.F.);
#171=EDGE_CURVE('',#204,#204,#228,.T.);
#172=EDGE_CURVE('',#202,#205,#49,.T.);
#173=EDGE_CURVE('',#206,#205,#50,.T.);
#174=EDGE_CURVE('',#203,#206,#51,.T.);
#175=EDGE_CURVE('',#207,#207,#229,.T.);
#176=EDGE_CURVE('',#208,#208,#230,.T.);
#177=EDGE_CURVE('',#209,#209,#231,.F.);
#178=EDGE_CURVE('',#206,#195,#58,.T.);
#179=EDGE_CURVE('',#205,#194,#59,.T.);
#180=EDGE_CURVE('',#210,#210,#232,.T.);
#181=EDGE_CURVE('',#211,#211,#233,.T.);
#182=EDGE_CURVE('',#212,#213,#69,.T.);
#183=EDGE_CURVE('',#213,#212,#70,.T.);
#184=EDGE_CURVE('',#214,#214,#234,.T.);
#185=EDGE_CURVE('',#215,#215,#235,.T.);
#186=EDGE_CURVE('',#216,#216,#236,.T.);
#187=EDGE_CURVE('',#217,#218,#71,.F.);
#188=EDGE_CURVE('',#218,#217,#72,.T.);
#189=EDGE_CURVE('',#219,#219,#237,.T.);
#190=EDGE_CURVE('',#220,#220,#238,.T.);
#191=VERTEX_POINT('',#530);
#192=VERTEX_POINT('',#532);
#193=VERTEX_POINT('',#535);
#194=VERTEX_POINT('',#538);
#195=VERTEX_POINT('',#539);
#196=VERTEX_POINT('',#541);
#197=VERTEX_POINT('',#543);
#198=VERTEX_POINT('',#550);
#199=VERTEX_POINT('',#552);
#200=VERTEX_POINT('',#559);
#201=VERTEX_POINT('',#561);
#202=VERTEX_POINT('',#565);
#203=VERTEX_POINT('',#567);
#204=VERTEX_POINT('',#571);
#205=VERTEX_POINT('',#576);
#206=VERTEX_POINT('',#581);
#207=VERTEX_POINT('',#588);
#208=VERTEX_POINT('',#591);
#209=VERTEX_POINT('',#594);
#210=VERTEX_POINT('',#602);
#211=VERTEX_POINT('',#607);
#212=VERTEX_POINT('',#609);
#213=VERTEX_POINT('',#610);
#214=VERTEX_POINT('',#614);
#215=VERTEX_POINT('',#616);
#216=VERTEX_POINT('',#619);
#217=VERTEX_POINT('',#622);
#218=VERTEX_POINT('',#623);
#219=VERTEX_POINT('',#626);
#220=VERTEX_POINT('',#630);
#221=CIRCLE('',#371,26.3882285676538);
#222=CIRCLE('',#372,22.25);
#223=CIRCLE('',#374,27.5);
#224=CIRCLE('',#377,27.5);
#225=CIRCLE('',#379,27.3);
#226=CIRCLE('',#381,24.15);
#227=CIRCLE('',#383,24.15);
#228=CIRCLE('',#385,23.6131919426697);
#229=CIRCLE('',#387,20.8499746353486);
#230=CIRCLE('',#389,20.);
#231=CIRCLE('',#391,20.);
#232=CIRCLE('',#396,22.25);
#233=CIRCLE('',#400,19.35);
#234=CIRCLE('',#404,19.35);
#235=CIRCLE('',#405,19.35);
#236=CIRCLE('',#407,22.25);
#237=CIRCLE('',#411,22.25);
#238=CIRCLE('',#414,22.25);
#239=EDGE_LOOP('',(#83));
#240=EDGE_LOOP('',(#84));
#241=EDGE_LOOP('',(#85));
#242=EDGE_LOOP('',(#86));
#243=EDGE_LOOP('',(#87,#88,#89,#90));
#244=EDGE_LOOP('',(#91));
#245=EDGE_LOOP('',(#92,#93,#94,#95));
#246=EDGE_LOOP('',(#96,#97,#98,#99));
#247=EDGE_LOOP('',(#100,#101,#102,#103));
#248=EDGE_LOOP('',(#104));
#249=EDGE_LOOP('',(#105,#106,#107,#108));
#250=EDGE_LOOP('',(#109));
#251=EDGE_LOOP('',(#110));
#252=EDGE_LOOP('',(#111));
#253=EDGE_LOOP('',(#112));
#254=EDGE_LOOP('',(#113));
#255=EDGE_LOOP('',(#114));
#256=EDGE_LOOP('',(#115,#116,#117,#118));
#257=EDGE_LOOP('',(#119,#120,#121,#122,#123,#124));
#258=EDGE_LOOP('',(#125,#126,#127,#128,#129,#130));
#259=EDGE_LOOP('',(#131));
#260=EDGE_LOOP('',(#132));
#261=EDGE_LOOP('',(#133));
#262=EDGE_LOOP('',(#134));
#263=EDGE_LOOP('',(#135));
#264=EDGE_LOOP('',(#136,#137));
#265=EDGE_LOOP('',(#138,#139));
#266=EDGE_LOOP('',(#140));
#267=EDGE_LOOP('',(#141));
#268=EDGE_LOOP('',(#142));
#269=EDGE_LOOP('',(#143));
#270=EDGE_LOOP('',(#144,#145));
#271=EDGE_LOOP('',(#146));
#272=EDGE_LOOP('',(#147));
#273=EDGE_LOOP('',(#148));
#274=EDGE_LOOP('',(#149));
#275=EDGE_LOOP('',(#150));
#276=EDGE_LOOP('',(#151,#152));
#277=EDGE_LOOP('',(#153));
#278=EDGE_LOOP('',(#154));
#279=FACE_BOUND('',#239,.T.);
#280=FACE_BOUND('',#240,.T.);
#281=FACE_BOUND('',#241,.T.);
#282=FACE_BOUND('',#242,.T.);
#283=FACE_BOUND('',#243,.T.);
#284=FACE_BOUND('',#244,.T.);
#285=FACE_BOUND('',#245,.T.);
#286=FACE_BOUND('',#246,.T.);
#287=FACE_BOUND('',#247,.T.);
#288=FACE_BOUND('',#248,.T.);
#289=FACE_BOUND('',#249,.T.);
#290=FACE_BOUND('',#250,.T.);
#291=FACE_BOUND('',#251,.T.);
#292=FACE_BOUND('',#252,.T.);
#293=FACE_BOUND('',#253,.T.);
#294=FACE_BOUND('',#254,.T.);
#295=FACE_BOUND('',#255,.T.);
#296=FACE_BOUND('',#256,.T.);
#297=FACE_BOUND('',#257,.T.);
#298=FACE_BOUND('',#258,.T.);
#299=FACE_BOUND('',#259,.T.);
#300=FACE_BOUND('',#260,.T.);
#301=FACE_BOUND('',#261,.T.);
#302=FACE_BOUND('',#262,.T.);
#303=FACE_BOUND('',#263,.T.);
#304=FACE_BOUND('',#264,.T.);
#305=FACE_BOUND('',#265,.T.);
#306=FACE_BOUND('',#266,.T.);
#307=FACE_BOUND('',#267,.T.);
#308=FACE_BOUND('',#268,.T.);
#309=FACE_BOUND('',#269,.T.);
#310=FACE_BOUND('',#270,.T.);
#311=FACE_BOUND('',#271,.T.);
#312=FACE_BOUND('',#272,.T.);
#313=FACE_BOUND('',#273,.T.);
#314=FACE_BOUND('',#274,.T.);
#315=FACE_BOUND('',#275,.T.);
#316=FACE_BOUND('',#276,.T.);
#317=FACE_BOUND('',#277,.T.);
#318=FACE_BOUND('',#278,.T.);
#319=CONICAL_SURFACE('',#370,22.1017723264673,1.30899693899575);
#320=CONICAL_SURFACE('',#378,27.5,0.785398163397448);
#321=CONICAL_SURFACE('',#386,23.6131919426697,1.22173047639603);
#322=ADVANCED_FACE('',(#279,#280),#319,.T.);
#323=ADVANCED_FACE('',(#281,#282),#81,.T.);
#324=ADVANCED_FACE('',(#283,#284),#73,.T.);
#325=ADVANCED_FACE('',(#285),#320,.T.);
#326=ADVANCED_FACE('',(#286),#38,.F.);
#327=ADVANCED_FACE('',(#287),#74,.F.);
#328=ADVANCED_FACE('',(#288,#289),#82,.F.);
#329=ADVANCED_FACE('',(#290,#291),#321,.T.);
#330=ADVANCED_FACE('',(#292,#293),#39,.F.);
#331=ADVANCED_FACE('',(#294,#295),#75,.F.);
#332=ADVANCED_FACE('',(#296),#40,.T.);
#333=ADVANCED_FACE('',(#297),#41,.F.);
#334=ADVANCED_FACE('',(#298),#42,.T.);
#335=ADVANCED_FACE('',(#299,#300),#76,.F.);
#336=ADVANCED_FACE('',(#301,#302),#43,.F.);
#337=ADVANCED_FACE('',(#303,#304),#77,.F.);
#338=ADVANCED_FACE('',(#305,#306,#307),#78,.F.);
#339=ADVANCED_FACE('',(#308,#309),#44,.F.);
#340=ADVANCED_FACE('',(#310,#311,#312),#79,.T.);
#341=ADVANCED_FACE('',(#313,#314),#45,.F.);
#342=ADVANCED_FACE('',(#315,#316),#80,.T.);
#343=ADVANCED_FACE('',(#317,#318),#46,.T.);
#344=CLOSED_SHELL('',(#322,#323,#324,#325,#326,#327,#328,#329,#330,#331,
#332,#333,#334,#335,#336));
#345=CLOSED_SHELL('',(#337,#338,#339,#340,#341,#342,#343));
#346=STYLED_ITEM('',(#348),#361);
#347=STYLED_ITEM('',(#349),#362);
#348=PRESENTATION_STYLE_ASSIGNMENT((#350));
#349=PRESENTATION_STYLE_ASSIGNMENT((#351));
#350=SURFACE_STYLE_USAGE(.BOTH.,#352);
#351=SURFACE_STYLE_USAGE(.BOTH.,#353);
#352=SURFACE_SIDE_STYLE('',(#354));
#353=SURFACE_SIDE_STYLE('',(#355));
#354=SURFACE_STYLE_FILL_AREA(#356);
#355=SURFACE_STYLE_FILL_AREA(#357);
#356=FILL_AREA_STYLE('',(#358));
#357=FILL_AREA_STYLE('',(#359));
#358=FILL_AREA_STYLE_COLOUR('',#360);
#359=FILL_AREA_STYLE_COLOUR('',#360);
#360=COLOUR_RGB('',0.506983280181885,0.531564235687256,0.550000011920929);
#361=MANIFOLD_SOLID_BREP('',#344);
#362=MANIFOLD_SOLID_BREP('',#345);
#363=SHAPE_DEFINITION_REPRESENTATION(#646,#366);
#364=SHAPE_DEFINITION_REPRESENTATION(#645,#367);
#365=SHAPE_DEFINITION_REPRESENTATION(#648,#368);
#366=SHAPE_REPRESENTATION('32.040005.640.340-nachbe.',(#369),#637);
#367=SHAPE_REPRESENTATION('33.040005.661.340',(#369,#398,#416,#417,#418),
#636);
#368=SHAPE_REPRESENTATION('Rohr T DN40',(#369),#638);
#369=AXIS2_PLACEMENT_3D('',#527,#419,#420);
#370=AXIS2_PLACEMENT_3D('',#528,#421,#422);
#371=AXIS2_PLACEMENT_3D('',#529,#423,#424);
#372=AXIS2_PLACEMENT_3D('',#531,#425,#426);
#373=AXIS2_PLACEMENT_3D('',#533,#427,#428);
#374=AXIS2_PLACEMENT_3D('',#534,#429,#430);
#375=AXIS2_PLACEMENT_3D('',#536,#431,#432);
#376=AXIS2_PLACEMENT_3D('',#537,#433,#434);
#377=AXIS2_PLACEMENT_3D('',#542,#436,#437);
#378=AXIS2_PLACEMENT_3D('',#545,#439,#440);
#379=AXIS2_PLACEMENT_3D('',#551,#441,#442);
#380=AXIS2_PLACEMENT_3D('',#557,#443,#444);
#381=AXIS2_PLACEMENT_3D('',#560,#446,#447);
#382=AXIS2_PLACEMENT_3D('',#563,#449,#450);
#383=AXIS2_PLACEMENT_3D('',#566,#452,#453);
#384=AXIS2_PLACEMENT_3D('',#569,#455,#456);
#385=AXIS2_PLACEMENT_3D('',#570,#457,#458);
#386=AXIS2_PLACEMENT_3D('',#586,#459,#460);
#387=AXIS2_PLACEMENT_3D('',#587,#461,#462);
#388=AXIS2_PLACEMENT_3D('',#589,#463,#464);
#389=AXIS2_PLACEMENT_3D('',#590,#465,#466);
#390=AXIS2_PLACEMENT_3D('',#592,#467,#468);
#391=AXIS2_PLACEMENT_3D('',#593,#469,#470);
#392=AXIS2_PLACEMENT_3D('',#595,#471,#472);
#393=AXIS2_PLACEMENT_3D('',#598,#475,#476);
#394=AXIS2_PLACEMENT_3D('',#599,#477,#478);
#395=AXIS2_PLACEMENT_3D('',#600,#479,#480);
#396=AXIS2_PLACEMENT_3D('',#601,#481,#482);
#397=AXIS2_PLACEMENT_3D('',#603,#483,#484);
#398=AXIS2_PLACEMENT_3D('',#604,#485,#486);
#399=AXIS2_PLACEMENT_3D('',#605,#487,#488);
#400=AXIS2_PLACEMENT_3D('',#606,#489,#490);
#401=AXIS2_PLACEMENT_3D('',#608,#491,#492);
#402=AXIS2_PLACEMENT_3D('',#611,#493,#494);
#403=AXIS2_PLACEMENT_3D('',#612,#495,#496);
#404=AXIS2_PLACEMENT_3D('',#613,#497,#498);
#405=AXIS2_PLACEMENT_3D('',#615,#499,#500);
#406=AXIS2_PLACEMENT_3D('',#617,#501,#502);
#407=AXIS2_PLACEMENT_3D('',#618,#503,#504);
#408=AXIS2_PLACEMENT_3D('',#620,#505,#506);
#409=AXIS2_PLACEMENT_3D('',#621,#507,#508);
#410=AXIS2_PLACEMENT_3D('',#624,#509,#510);
#411=AXIS2_PLACEMENT_3D('',#625,#511,#512);
#412=AXIS2_PLACEMENT_3D('',#627,#513,#514);
#413=AXIS2_PLACEMENT_3D('',#628,#515,#516);
#414=AXIS2_PLACEMENT_3D('',#629,#517,#518);
#415=AXIS2_PLACEMENT_3D('',#631,#519,#520);
#416=AXIS2_PLACEMENT_3D('',#632,#521,#522);
#417=AXIS2_PLACEMENT_3D('',#633,#523,#524);
#418=AXIS2_PLACEMENT_3D('',#634,#525,#526);
#419=DIRECTION('',(0.,0.,1.));
#420=DIRECTION('',(1.,0.,0.));
#421=DIRECTION('',(-1.,0.,0.));
#422=DIRECTION('',(0.,0.,1.));
#423=DIRECTION('',(-1.,0.,0.));
#424=DIRECTION('',(0.,0.,1.));
#425=DIRECTION('',(-1.,0.,0.));
#426=DIRECTION('',(0.,0.,1.));
#427=DIRECTION('',(-1.,0.,0.));
#428=DIRECTION('',(0.,0.,1.));
#429=DIRECTION('',(-1.,0.,0.));
#430=DIRECTION('',(0.,0.,1.));
#431=DIRECTION('',(-1.,0.,0.));
#432=DIRECTION('',(0.,0.,1.));
#433=DIRECTION('',(-0.939692620785909,0.,0.342020143325668));
#434=DIRECTION('',(-0.342020143325668,0.,-0.939692620785909));
#435=DIRECTION('',(-1.,0.,0.));
#436=DIRECTION('',(-1.,0.,0.));
#437=DIRECTION('',(0.,0.,1.));
#438=DIRECTION('',(-1.,0.,0.));
#439=DIRECTION('',(1.,0.,0.));
#440=DIRECTION('',(0.,0.,-1.));
#441=DIRECTION('',(-1.,0.,0.));
#442=DIRECTION('',(0.,0.,1.));
#443=DIRECTION('',(1.,0.,0.));
#444=DIRECTION('',(0.,0.,-1.));
#445=DIRECTION('',(0.,0.,-1.));
#446=DIRECTION('',(-1.,0.,0.));
#447=DIRECTION('',(0.,0.,1.));
#448=DIRECTION('',(0.,0.,-1.));
#449=DIRECTION('',(-1.,0.,0.));
#450=DIRECTION('',(0.,0.,1.));
#451=DIRECTION('',(-1.,0.,0.));
#452=DIRECTION('',(-1.,0.,0.));
#453=DIRECTION('',(0.,0.,1.));
#454=DIRECTION('',(-1.,0.,0.));
#455=DIRECTION('',(-1.,0.,0.));
#456=DIRECTION('',(0.,0.,1.));
#457=DIRECTION('',(-1.,0.,0.));
#458=DIRECTION('',(0.,0.,1.));
#459=DIRECTION('',(1.,0.,0.));
#460=DIRECTION('',(0.,0.,-1.));
#461=DIRECTION('',(-1.,0.,0.));
#462=DIRECTION('',(0.,0.,1.));
#463=DIRECTION('',(1.,0.,0.));
#464=DIRECTION('',(0.,0.,-1.));
#465=DIRECTION('',(-1.,0.,0.));
#466=DIRECTION('',(0.,0.,1.));
#467=DIRECTION('',(-1.,0.,0.));
#468=DIRECTION('',(0.,0.,1.));
#469=DIRECTION('',(-1.,0.,0.));
#470=DIRECTION('',(0.,0.,1.));
#471=DIRECTION('',(-0.939692620785909,0.,0.342020143325668));
#472=DIRECTION('',(0.342020143325668,0.,0.939692620785909));
#473=DIRECTION('',(0.342020143325668,0.,0.939692620785909));
#474=DIRECTION('',(0.342020143325668,0.,0.939692620785909));
#475=DIRECTION('',(0.,-1.,0.));
#476=DIRECTION('',(0.,0.,-1.));
#477=DIRECTION('',(0.,-1.,0.));
#478=DIRECTION('',(0.,0.,-1.));
#479=DIRECTION('',(1.,0.,0.));
#480=DIRECTION('',(0.,0.,-1.));
#481=DIRECTION('',(-1.,0.,0.));
#482=DIRECTION('',(0.,1.,0.));
#483=DIRECTION('',(-1.,0.,0.));
#484=DIRECTION('',(0.,0.,1.));
#485=DIRECTION('',(-2.10111979062077E-17,6.60062097471043E-34,-1.));
#486=DIRECTION('',(-1.,3.14147770354411E-17,2.10111979062077E-17));
#487=DIRECTION('',(0.,0.,-1.));
#488=DIRECTION('',(-1.,0.,0.));
#489=DIRECTION('',(0.,0.,-1.));
#490=DIRECTION('',(-1.,0.,0.));
#491=DIRECTION('',(0.707106781186547,0.,-0.707106781186547));
#492=DIRECTION('',(-0.707106781186547,0.,-0.707106781186547));
#493=DIRECTION('',(-0.707106781186547,0.,-0.707106781186547));
#494=DIRECTION('',(0.707106781186547,0.,-0.707106781186547));
#495=DIRECTION('',(-1.,0.,0.));
#496=DIRECTION('',(0.,0.,1.));
#497=DIRECTION('',(-1.,0.,0.));
#498=DIRECTION('',(0.,0.,1.));
#499=DIRECTION('',(-1.,0.,0.));
#500=DIRECTION('',(0.,0.,1.));
#501=DIRECTION('',(-1.,0.,0.));
#502=DIRECTION('',(0.,0.,1.));
#503=DIRECTION('',(-1.,0.,0.));
#504=DIRECTION('',(0.,0.,1.));
#505=DIRECTION('',(-1.,0.,0.));
#506=DIRECTION('',(0.,0.,1.));
#507=DIRECTION('',(-0.707106781186547,0.,0.707106781186547));
#508=DIRECTION('',(-0.707106781186547,0.,-0.707106781186547));
#509=DIRECTION('',(-0.707106781186547,0.,-0.707106781186547));
#510=DIRECTION('',(-0.707106781186547,0.,0.707106781186547));
#511=DIRECTION('',(-1.,0.,0.));
#512=DIRECTION('',(0.,0.,1.));
#513=DIRECTION('',(1.,0.,0.));
#514=DIRECTION('',(0.,0.,-1.));
#515=DIRECTION('',(0.,0.,-1.));
#516=DIRECTION('',(-1.,0.,0.));
#517=DIRECTION('',(0.,0.,-1.));
#518=DIRECTION('',(-1.,0.,0.));
#519=DIRECTION('',(0.,0.,1.));
#520=DIRECTION('',(1.,0.,0.));
#521=DIRECTION('',(-3.39904145402937E-17,5.61779078793344E-17,-1.));
#522=DIRECTION('',(-1.,-5.5295857743841E-33,3.39904145402937E-17));
#523=DIRECTION('',(-2.02212620671588E-49,5.55111512312579E-17,-1.));
#524=DIRECTION('',(1.,-1.88684704195939E-33,-3.06953672168048E-49));
#525=DIRECTION('',(-1.,-4.9960036108132E-16,1.78136027034324E-16));
#526=DIRECTION('',(1.78136027034323E-16,3.88244680294767E-16,1.));
#527=CARTESIAN_POINT('',(0.,0.,0.));
#528=CARTESIAN_POINT('',(6.25000000000001,0.,0.));
#529=CARTESIAN_POINT('',(5.10144751178275,0.,0.));
#530=CARTESIAN_POINT('',(5.10144751178275,0.,26.3882285676538));
#531=CARTESIAN_POINT('',(6.21028251458099,0.,0.));
#532=CARTESIAN_POINT('',(6.21028251458099,0.,22.25));
#533=CARTESIAN_POINT('',(3.65255877234915,0.,0.));
#534=CARTESIAN_POINT('',(3.65255877234914,0.,0.));
#535=CARTESIAN_POINT('',(3.65255877234914,0.,27.5));
#536=CARTESIAN_POINT('',(-60.,0.,0.));
#537=CARTESIAN_POINT('',(-7.45481459559115,0.,0.));
#538=CARTESIAN_POINT('',(2.54774701700899,-1.,27.4818121673226));
#539=CARTESIAN_POINT('',(2.54774701700899,1.,27.4818121673226));
#540=CARTESIAN_POINT('',(-60.,-1.,27.4818121673226));
#541=CARTESIAN_POINT('',(0.2,-1.,27.4818121673226));
#542=CARTESIAN_POINT('',(0.199999999999999,0.,0.));
#543=CARTESIAN_POINT('',(0.2,1.,27.4818121673226));
#544=CARTESIAN_POINT('',(-60.,1.,27.4818121673226));
#545=CARTESIAN_POINT('',(0.199999999999999,0.,0.));
#546=CARTESIAN_POINT('',(0.200000000000001,-1.,27.4818121673226));
#547=CARTESIAN_POINT('',(0.133333171564172,-1.,27.4151012178836));
#548=CARTESIAN_POINT('',(0.0666665037115906,-1.,27.348390107952));
#549=CARTESIAN_POINT('',(4.87405112406179E-16,-1.,27.2816788339721));
#550=CARTESIAN_POINT('',(0.,-1.,27.2816788339721));
#551=CARTESIAN_POINT('',(0.,0.,0.));
#552=CARTESIAN_POINT('',(0.,1.,27.2816788339721));
#553=CARTESIAN_POINT('',(0.200000000000001,1.,27.4818121673226));
#554=CARTESIAN_POINT('',(0.133333171564172,1.,27.4151012178836));
#555=CARTESIAN_POINT('',(0.0666665037115906,1.,27.348390107952));
#556=CARTESIAN_POINT('',(4.87405112406179E-16,1.,27.2816788339721));
#557=CARTESIAN_POINT('',(0.,0.,24.15));
#558=CARTESIAN_POINT('',(0.,-1.,24.15));
#559=CARTESIAN_POINT('',(0.,-1.,24.1292871838353));
#560=CARTESIAN_POINT('',(0.,0.,0.));
#561=CARTESIAN_POINT('',(0.,1.,24.1292871838353));
#562=CARTESIAN_POINT('',(0.,1.,24.15));
#563=CARTESIAN_POINT('',(-60.,0.,0.));
#564=CARTESIAN_POINT('',(-60.,-1.,24.1292871838353));
#565=CARTESIAN_POINT('',(1.02985180235974,-1.,24.1292871838353));
#566=CARTESIAN_POINT('',(1.02985180235974,0.,0.));
#567=CARTESIAN_POINT('',(1.02985180235974,1.,24.1292871838353));
#568=CARTESIAN_POINT('',(-60.,1.,24.1292871838353));
#569=CARTESIAN_POINT('',(1.02985180235974,0.,0.));
#570=CARTESIAN_POINT('',(1.4057288506741,0.,0.));
#571=CARTESIAN_POINT('',(1.4057288506741,0.,23.6131919426697));
#572=CARTESIAN_POINT('',(1.02985180235974,-1.,24.1292871838353));
#573=CARTESIAN_POINT('',(1.12534378368929,-1.,24.1292871838353));
#574=CARTESIAN_POINT('',(1.22007350315971,-1.,24.0937491812947));
#575=CARTESIAN_POINT('',(1.29190326864826,-1.,24.0314098263382));
#576=CARTESIAN_POINT('',(1.29190326864826,-1.,24.0314098263382));
#577=CARTESIAN_POINT('',(1.29190326864826,1.,24.0314098263382));
#578=CARTESIAN_POINT('',(1.29957441343935,0.333515228596175,24.0524861234331));
#579=CARTESIAN_POINT('',(1.29957442840123,-0.333513928677184,24.0524861645405));
#580=CARTESIAN_POINT('',(1.29190326864826,-1.,24.0314098263382));
#581=CARTESIAN_POINT('',(1.29190326864826,1.,24.0314098263382));
#582=CARTESIAN_POINT('',(1.02985180235974,1.,24.1292871838353));
#583=CARTESIAN_POINT('',(1.12534378368929,1.,24.1292871838353));
#584=CARTESIAN_POINT('',(1.22007350315971,1.,24.0937491812947));
#585=CARTESIAN_POINT('',(1.29190326864826,1.,24.0314098263382));
#586=CARTESIAN_POINT('',(1.4057288506741,0.,0.));
#587=CARTESIAN_POINT('',(0.400000000000005,0.,0.));
#588=CARTESIAN_POINT('',(0.400000000000005,0.,20.8499746353486));
#589=CARTESIAN_POINT('',(0.400000000000002,0.,20.8499746353486));
#590=CARTESIAN_POINT('',(0.400000000000005,0.,0.));
#591=CARTESIAN_POINT('',(0.400000000000005,0.,20.));
#592=CARTESIAN_POINT('',(-60.,0.,0.));
#593=CARTESIAN_POINT('',(3.25,0.,0.));
#594=CARTESIAN_POINT('',(3.25,0.,20.));
#595=CARTESIAN_POINT('',(1.01544566413856,-1.,23.2718488005113));
#596=CARTESIAN_POINT('',(1.01544566413856,1.,23.2718488005113));
#597=CARTESIAN_POINT('',(1.01544566413856,-1.,23.2718488005113));
#598=CARTESIAN_POINT('',(0.,-1.,0.));
#599=CARTESIAN_POINT('',(0.,1.,0.));
#600=CARTESIAN_POINT('',(3.25,0.,0.));
#601=CARTESIAN_POINT('',(3.25,0.,0.));
#602=CARTESIAN_POINT('',(3.25,22.25,0.));
#603=CARTESIAN_POINT('',(3.25,0.,0.));
#604=CARTESIAN_POINT('',(63.,-1.02098025365183E-16,-2.09921366197773E-15));
#605=CARTESIAN_POINT('',(0.,0.,0.));
#606=CARTESIAN_POINT('',(0.,0.,59.75));
#607=CARTESIAN_POINT('',(-19.35,0.,59.75));
#608=CARTESIAN_POINT('',(0.,0.,0.));
#609=CARTESIAN_POINT('',(0.,19.35,0.));
#610=CARTESIAN_POINT('',(0.,-19.35,0.));
#611=CARTESIAN_POINT('',(0.,0.,0.));
#612=CARTESIAN_POINT('',(0.,0.,0.));
#613=CARTESIAN_POINT('',(-59.75,0.,0.));
#614=CARTESIAN_POINT('',(-59.75,0.,19.35));
#615=CARTESIAN_POINT('',(59.75,0.,0.));
#616=CARTESIAN_POINT('',(59.75,0.,19.35));
#617=CARTESIAN_POINT('',(59.75,0.,19.35));
#618=CARTESIAN_POINT('',(59.75,0.,0.));
#619=CARTESIAN_POINT('',(59.75,0.,22.25));
#620=CARTESIAN_POINT('',(0.,0.,0.));
#621=CARTESIAN_POINT('',(0.,0.,0.));
#622=CARTESIAN_POINT('',(4.10256677714362E-16,22.25,4.10256677714362E-16));
#623=CARTESIAN_POINT('',(0.,-22.25,0.));
#624=CARTESIAN_POINT('',(0.,0.,0.));
#625=CARTESIAN_POINT('',(-59.75,0.,0.));
#626=CARTESIAN_POINT('',(-59.75,0.,22.25));
#627=CARTESIAN_POINT('',(-59.75,0.,22.25));
#628=CARTESIAN_POINT('',(0.,0.,0.));
#629=CARTESIAN_POINT('',(0.,0.,59.75));
#630=CARTESIAN_POINT('',(-22.25,0.,59.75));
#631=CARTESIAN_POINT('',(-22.25,0.,59.75));
#632=CARTESIAN_POINT('',(-8.7243453398583E-16,-1.54074395550979E-30,2.1413961160385E-15));
#633=CARTESIAN_POINT('',(-63.,-2.3340938282766E-30,6.32221710449464E-15));
#634=CARTESIAN_POINT('',(2.55916450138735E-15,-2.31976196476123E-14,-63.));
#635=MECHANICAL_DESIGN_GEOMETRIC_PRESENTATION_REPRESENTATION('',(#346,#347),
#636);
#636=(
GEOMETRIC_REPRESENTATION_CONTEXT(3)
GLOBAL_UNCERTAINTY_ASSIGNED_CONTEXT((#639))
GLOBAL_UNIT_ASSIGNED_CONTEXT((#644,#643,#642))
REPRESENTATION_CONTEXT('33.040005.661.340','TOP_LEVEL_ASSEMBLY_PART')
);
#637=(
GEOMETRIC_REPRESENTATION_CONTEXT(3)
GLOBAL_UNCERTAINTY_ASSIGNED_CONTEXT((#640))
GLOBAL_UNIT_ASSIGNED_CONTEXT((#644,#643,#642))
REPRESENTATION_CONTEXT('32.040005.640.340-nachbe.','COMPONENT_PART')
);
#638=(
GEOMETRIC_REPRESENTATION_CONTEXT(3)
GLOBAL_UNCERTAINTY_ASSIGNED_CONTEXT((#641))
GLOBAL_UNIT_ASSIGNED_CONTEXT((#644,#643,#642))
REPRESENTATION_CONTEXT('Rohr T DN40','COMPONENT_PART')
);
#639=UNCERTAINTY_MEASURE_WITH_UNIT(LENGTH_MEASURE(0.005),#644,
'DISTANCE_ACCURACY_VALUE','Maximum Tolerance applied to model');
#640=UNCERTAINTY_MEASURE_WITH_UNIT(LENGTH_MEASURE(0.005),#644,
'DISTANCE_ACCURACY_VALUE','Maximum Tolerance applied to model');
#641=UNCERTAINTY_MEASURE_WITH_UNIT(LENGTH_MEASURE(0.005),#644,
'DISTANCE_ACCURACY_VALUE','Maximum Tolerance applied to model');
#642=(
NAMED_UNIT(*)
SI_UNIT($,.STERADIAN.)
SOLID_ANGLE_UNIT()
);
#643=(
NAMED_UNIT(*)
PLANE_ANGLE_UNIT()
SI_UNIT($,.RADIAN.)
);
#644=(
LENGTH_UNIT()
NAMED_UNIT(*)
SI_UNIT(.MILLI.,.METRE.)
);
#645=PRODUCT_DEFINITION_SHAPE('','',#652);
#646=PRODUCT_DEFINITION_SHAPE('','',#653);
#647=PRODUCT_DEFINITION_SHAPE(' ','NAUO PRDDFN',#22);
#648=PRODUCT_DEFINITION_SHAPE('','',#654);
#649=PRODUCT_DEFINITION_SHAPE(' ','NAUO PRDDFN',#23);
#650=PRODUCT_DEFINITION_SHAPE(' ','NAUO PRDDFN',#24);
#651=PRODUCT_DEFINITION_SHAPE(' ','NAUO PRDDFN',#25);
#652=PRODUCT_DEFINITION('','',#658,#655);
#653=PRODUCT_DEFINITION('','',#659,#656);
#654=PRODUCT_DEFINITION('','',#660,#657);
#655=PRODUCT_DEFINITION_CONTEXT('',#674,'design');
#656=PRODUCT_DEFINITION_CONTEXT('',#674,'design');
#657=PRODUCT_DEFINITION_CONTEXT('',#674,'design');
#658=PRODUCT_DEFINITION_FORMATION_WITH_SPECIFIED_SOURCE('','',#664,
 .NOT_KNOWN.);
#659=PRODUCT_DEFINITION_FORMATION_WITH_SPECIFIED_SOURCE('','',#665,
 .NOT_KNOWN.);
#660=PRODUCT_DEFINITION_FORMATION_WITH_SPECIFIED_SOURCE('','',#666,
 .NOT_KNOWN.);
#661=PRODUCT_RELATED_PRODUCT_CATEGORY('','',(#664));
#662=PRODUCT_RELATED_PRODUCT_CATEGORY('','',(#665));
#663=PRODUCT_RELATED_PRODUCT_CATEGORY('','',(#666));
#664=PRODUCT('33.040005.661.340','33.040005.661.340',
'33.040005.661.340',(#670));
#665=PRODUCT('32.040005.640.340-nachbe.','32.040005.640.340-nachbe.',
'32.040005.640.340-nachbe.',(#671));
#666=PRODUCT('Rohr T DN40','Rohr T DN40','Rohr T DN40',(#672));
#667=PRODUCT_CATEGORY('','');
#668=PRODUCT_CATEGORY('','');
#669=PRODUCT_CATEGORY('','');
#670=PRODUCT_CONTEXT('',#674,'mechanical');
#671=PRODUCT_CONTEXT('',#674,'mechanical');
#672=PRODUCT_CONTEXT('',#674,'mechanical');
#673=APPLICATION_PROTOCOL_DEFINITION('international standard',
'automotive_design',2010,#674);
#674=APPLICATION_CONTEXT(
'core data for automotive mechanical design processes');
ENDSEC;
END-ISO-10303-21;
