ISO-10303-21;
HEADER;
/* Generated by software containing ST-Developer
 * from STEP Tools, Inc. (www.steptools.com) 
 */
/* OPTION: strings as raw bytes, not using required /X/ escapes */

FILE_DESCRIPTION(
/* description */ (''),
/* implementation_level */ '2;1');

FILE_NAME(
/* name */ '33.063007.171.763',
/* time_stamp */ '2018-11-19T14:50:33+01:00',
/* author */ ('Murat Coskun Bicak'),
/* organization */ ('Evac AG'),
/* preprocessor_version */ 'ST-DEVELOPER v16.7',
/* originating_system */ 'DEX',
/* authorisation */ $);

FILE_SCHEMA (('AUTOMOTIVE_DESIGN {1 0 10303 214 3 1 1}'));
ENDSEC;

DATA;
#10=PROPERTY_DEFINITION_REPRESENTATION(#14,#12);
#11=PROPERTY_DEFINITION_REPRESENTATION(#15,#13);
#12=REPRESENTATION('',(#16),#629);
#13=REPRESENTATION('',(#17),#629);
#14=PROPERTY_DEFINITION('pmi validation property','',#634);
#15=PROPERTY_DEFINITION('pmi validation property','',#634);
#16=VALUE_REPRESENTATION_ITEM('number of annotations',COUNT_MEASURE(0.));
#17=VALUE_REPRESENTATION_ITEM('number of views',COUNT_MEASURE(0.));
#18=SHAPE_REPRESENTATION_RELATIONSHIP('','',#355,#19);
#19=ADVANCED_BREP_SHAPE_REPRESENTATION('',(#353),#629);
#20=TOROIDAL_SURFACE('',#409,38.,1.);
#21=TOROIDAL_SURFACE('',#410,38.,1.);
#22=TOROIDAL_SURFACE('',#411,38.,1.);
#23=TOROIDAL_SURFACE('',#412,38.,1.);
#24=TOROIDAL_SURFACE('',#413,42.,1.5);
#25=TOROIDAL_SURFACE('',#414,42.,1.5);
#26=TOROIDAL_SURFACE('',#415,42.,1.5);
#27=TOROIDAL_SURFACE('',#416,42.,1.5);
#28=PLANE('',#380);
#29=PLANE('',#384);
#30=PLANE('',#397);
#31=PLANE('',#402);
#32=CONICAL_SURFACE('',#374,37.,1.30899693899575);
#33=CONICAL_SURFACE('',#386,37.,1.30899693899575);
#34=CONICAL_SURFACE('',#391,43.5,1.30899693899575);
#35=CONICAL_SURFACE('',#406,43.5,1.30899693899575);
#36=CIRCLE('',#360,35.);
#37=CIRCLE('',#362,37.);
#38=CIRCLE('',#366,35.);
#39=CIRCLE('',#369,37.);
#40=CIRCLE('',#372,37.);
#41=CIRCLE('',#375,42.3882285676538);
#42=CIRCLE('',#376,37.7411809548975);
#43=CIRCLE('',#378,43.5);
#44=CIRCLE('',#379,43.5);
#45=CIRCLE('',#383,35.);
#46=CIRCLE('',#385,43.5);
#47=CIRCLE('',#387,42.3882285676538);
#48=CIRCLE('',#388,37.7411809548975);
#49=CIRCLE('',#390,43.5);
#50=CIRCLE('',#392,42.3882285676538);
#51=CIRCLE('',#393,37.7411809548975);
#52=CIRCLE('',#395,43.5);
#53=CIRCLE('',#396,43.5);
#54=CIRCLE('',#399,35.);
#55=CIRCLE('',#401,37.);
#56=CIRCLE('',#403,43.5);
#57=CIRCLE('',#405,43.5);
#58=CIRCLE('',#407,42.3882285676538);
#59=CIRCLE('',#408,37.7411809548975);
#60=ORIENTED_EDGE('',*,*,#124,.F.);
#61=ORIENTED_EDGE('',*,*,#125,.F.);
#62=ORIENTED_EDGE('',*,*,#126,.F.);
#63=ORIENTED_EDGE('',*,*,#127,.T.);
#64=ORIENTED_EDGE('',*,*,#128,.F.);
#65=ORIENTED_EDGE('',*,*,#129,.F.);
#66=ORIENTED_EDGE('',*,*,#130,.F.);
#67=ORIENTED_EDGE('',*,*,#124,.T.);
#68=ORIENTED_EDGE('',*,*,#131,.T.);
#69=ORIENTED_EDGE('',*,*,#132,.T.);
#70=ORIENTED_EDGE('',*,*,#133,.F.);
#71=ORIENTED_EDGE('',*,*,#129,.T.);
#72=ORIENTED_EDGE('',*,*,#134,.T.);
#73=ORIENTED_EDGE('',*,*,#135,.F.);
#74=ORIENTED_EDGE('',*,*,#133,.T.);
#75=ORIENTED_EDGE('',*,*,#136,.T.);
#76=ORIENTED_EDGE('',*,*,#137,.T.);
#77=ORIENTED_EDGE('',*,*,#138,.T.);
#78=ORIENTED_EDGE('',*,*,#139,.T.);
#79=ORIENTED_EDGE('',*,*,#126,.T.);
#80=ORIENTED_EDGE('',*,*,#139,.F.);
#81=ORIENTED_EDGE('',*,*,#140,.F.);
#82=ORIENTED_EDGE('',*,*,#131,.F.);
#83=ORIENTED_EDGE('',*,*,#141,.T.);
#84=ORIENTED_EDGE('',*,*,#130,.T.);
#85=ORIENTED_EDGE('',*,*,#142,.F.);
#86=ORIENTED_EDGE('',*,*,#143,.T.);
#87=ORIENTED_EDGE('',*,*,#144,.T.);
#88=ORIENTED_EDGE('',*,*,#145,.T.);
#89=ORIENTED_EDGE('',*,*,#142,.T.);
#90=ORIENTED_EDGE('',*,*,#146,.T.);
#91=ORIENTED_EDGE('',*,*,#147,.T.);
#92=ORIENTED_EDGE('',*,*,#148,.T.);
#93=ORIENTED_EDGE('',*,*,#149,.F.);
#94=ORIENTED_EDGE('',*,*,#149,.T.);
#95=ORIENTED_EDGE('',*,*,#141,.F.);
#96=ORIENTED_EDGE('',*,*,#150,.T.);
#97=ORIENTED_EDGE('',*,*,#140,.T.);
#98=ORIENTED_EDGE('',*,*,#125,.T.);
#99=ORIENTED_EDGE('',*,*,#151,.T.);
#100=ORIENTED_EDGE('',*,*,#128,.T.);
#101=ORIENTED_EDGE('',*,*,#135,.T.);
#102=ORIENTED_EDGE('',*,*,#152,.T.);
#103=ORIENTED_EDGE('',*,*,#150,.F.);
#104=ORIENTED_EDGE('',*,*,#153,.T.);
#105=ORIENTED_EDGE('',*,*,#152,.F.);
#106=ORIENTED_EDGE('',*,*,#154,.T.);
#107=ORIENTED_EDGE('',*,*,#155,.T.);
#108=ORIENTED_EDGE('',*,*,#144,.F.);
#109=ORIENTED_EDGE('',*,*,#132,.F.);
#110=ORIENTED_EDGE('',*,*,#151,.F.);
#111=ORIENTED_EDGE('',*,*,#155,.F.);
#112=ORIENTED_EDGE('',*,*,#137,.F.);
#113=ORIENTED_EDGE('',*,*,#127,.F.);
#114=ORIENTED_EDGE('',*,*,#134,.F.);
#115=ORIENTED_EDGE('',*,*,#147,.F.);
#116=ORIENTED_EDGE('',*,*,#138,.F.);
#117=ORIENTED_EDGE('',*,*,#136,.F.);
#118=ORIENTED_EDGE('',*,*,#154,.F.);
#119=ORIENTED_EDGE('',*,*,#153,.F.);
#120=ORIENTED_EDGE('',*,*,#146,.F.);
#121=ORIENTED_EDGE('',*,*,#148,.F.);
#122=ORIENTED_EDGE('',*,*,#145,.F.);
#123=ORIENTED_EDGE('',*,*,#143,.F.);
#124=EDGE_CURVE('',#156,#157,#184,.F.);
#125=EDGE_CURVE('',#157,#156,#185,.F.);
#126=EDGE_CURVE('',#158,#158,#36,.T.);
#127=EDGE_CURVE('',#159,#159,#37,.T.);
#128=EDGE_CURVE('',#160,#161,#186,.T.);
#129=EDGE_CURVE('',#161,#160,#187,.T.);
#130=EDGE_CURVE('',#162,#162,#38,.T.);
#131=EDGE_CURVE('',#157,#156,#188,.T.);
#132=EDGE_CURVE('',#163,#163,#39,.T.);
#133=EDGE_CURVE('',#161,#160,#189,.T.);
#134=EDGE_CURVE('',#164,#164,#40,.F.);
#135=EDGE_CURVE('',#161,#160,#190,.F.);
#136=EDGE_CURVE('',#165,#165,#41,.T.);
#137=EDGE_CURVE('',#166,#166,#42,.T.);
#138=EDGE_CURVE('',#167,#167,#43,.T.);
#139=EDGE_CURVE('',#168,#168,#44,.T.);
#140=EDGE_CURVE('',#156,#157,#191,.T.);
#141=EDGE_CURVE('',#169,#169,#45,.T.);
#142=EDGE_CURVE('',#170,#170,#46,.T.);
#143=EDGE_CURVE('',#171,#171,#47,.T.);
#144=EDGE_CURVE('',#172,#172,#48,.T.);
#145=EDGE_CURVE('',#173,#173,#49,.T.);
#146=EDGE_CURVE('',#174,#174,#50,.T.);
#147=EDGE_CURVE('',#175,#175,#51,.T.);
#148=EDGE_CURVE('',#176,#176,#52,.F.);
#149=EDGE_CURVE('',#177,#177,#53,.T.);
#150=EDGE_CURVE('',#178,#178,#54,.T.);
#151=EDGE_CURVE('',#179,#179,#55,.F.);
#152=EDGE_CURVE('',#180,#180,#56,.T.);
#153=EDGE_CURVE('',#181,#181,#57,.F.);
#154=EDGE_CURVE('',#182,#182,#58,.T.);
#155=EDGE_CURVE('',#183,#183,#59,.T.);
#156=VERTEX_POINT('',#542);
#157=VERTEX_POINT('',#543);
#158=VERTEX_POINT('',#546);
#159=VERTEX_POINT('',#549);
#160=VERTEX_POINT('',#551);
#161=VERTEX_POINT('',#552);
#162=VERTEX_POINT('',#556);
#163=VERTEX_POINT('',#560);
#164=VERTEX_POINT('',#564);
#165=VERTEX_POINT('',#568);
#166=VERTEX_POINT('',#570);
#167=VERTEX_POINT('',#573);
#168=VERTEX_POINT('',#575);
#169=VERTEX_POINT('',#580);
#170=VERTEX_POINT('',#583);
#171=VERTEX_POINT('',#586);
#172=VERTEX_POINT('',#588);
#173=VERTEX_POINT('',#591);
#174=VERTEX_POINT('',#594);
#175=VERTEX_POINT('',#596);
#176=VERTEX_POINT('',#599);
#177=VERTEX_POINT('',#601);
#178=VERTEX_POINT('',#605);
#179=VERTEX_POINT('',#608);
#180=VERTEX_POINT('',#611);
#181=VERTEX_POINT('',#614);
#182=VERTEX_POINT('',#617);
#183=VERTEX_POINT('',#619);
#184=ELLIPSE('',#358,49.4974746830583,35.);
#185=ELLIPSE('',#359,49.4974746830583,35.);
#186=ELLIPSE('',#363,52.3259018078045,37.);
#187=ELLIPSE('',#364,52.3259018078045,37.);
#188=ELLIPSE('',#367,49.4974746830583,35.);
#189=ELLIPSE('',#370,52.3259018078045,37.);
#190=ELLIPSE('',#373,52.3259018078045,37.);
#191=ELLIPSE('',#382,49.4974746830583,35.);
#192=EDGE_LOOP('',(#60,#61));
#193=EDGE_LOOP('',(#62));
#194=EDGE_LOOP('',(#63));
#195=EDGE_LOOP('',(#64,#65));
#196=EDGE_LOOP('',(#66));
#197=EDGE_LOOP('',(#67,#68));
#198=EDGE_LOOP('',(#69));
#199=EDGE_LOOP('',(#70,#71));
#200=EDGE_LOOP('',(#72));
#201=EDGE_LOOP('',(#73,#74));
#202=EDGE_LOOP('',(#75));
#203=EDGE_LOOP('',(#76));
#204=EDGE_LOOP('',(#77));
#205=EDGE_LOOP('',(#78));
#206=EDGE_LOOP('',(#79));
#207=EDGE_LOOP('',(#80));
#208=EDGE_LOOP('',(#81,#82));
#209=EDGE_LOOP('',(#83));
#210=EDGE_LOOP('',(#84));
#211=EDGE_LOOP('',(#85));
#212=EDGE_LOOP('',(#86));
#213=EDGE_LOOP('',(#87));
#214=EDGE_LOOP('',(#88));
#215=EDGE_LOOP('',(#89));
#216=EDGE_LOOP('',(#90));
#217=EDGE_LOOP('',(#91));
#218=EDGE_LOOP('',(#92));
#219=EDGE_LOOP('',(#93));
#220=EDGE_LOOP('',(#94));
#221=EDGE_LOOP('',(#95));
#222=EDGE_LOOP('',(#96));
#223=EDGE_LOOP('',(#97,#98));
#224=EDGE_LOOP('',(#99));
#225=EDGE_LOOP('',(#100,#101));
#226=EDGE_LOOP('',(#102));
#227=EDGE_LOOP('',(#103));
#228=EDGE_LOOP('',(#104));
#229=EDGE_LOOP('',(#105));
#230=EDGE_LOOP('',(#106));
#231=EDGE_LOOP('',(#107));
#232=EDGE_LOOP('',(#108));
#233=EDGE_LOOP('',(#109));
#234=EDGE_LOOP('',(#110));
#235=EDGE_LOOP('',(#111));
#236=EDGE_LOOP('',(#112));
#237=EDGE_LOOP('',(#113));
#238=EDGE_LOOP('',(#114));
#239=EDGE_LOOP('',(#115));
#240=EDGE_LOOP('',(#116));
#241=EDGE_LOOP('',(#117));
#242=EDGE_LOOP('',(#118));
#243=EDGE_LOOP('',(#119));
#244=EDGE_LOOP('',(#120));
#245=EDGE_LOOP('',(#121));
#246=EDGE_LOOP('',(#122));
#247=EDGE_LOOP('',(#123));
#248=FACE_BOUND('',#192,.T.);
#249=FACE_BOUND('',#193,.T.);
#250=FACE_BOUND('',#194,.T.);
#251=FACE_BOUND('',#195,.T.);
#252=FACE_BOUND('',#196,.T.);
#253=FACE_BOUND('',#197,.T.);
#254=FACE_BOUND('',#198,.T.);
#255=FACE_BOUND('',#199,.T.);
#256=FACE_BOUND('',#200,.T.);
#257=FACE_BOUND('',#201,.T.);
#258=FACE_BOUND('',#202,.T.);
#259=FACE_BOUND('',#203,.T.);
#260=FACE_BOUND('',#204,.T.);
#261=FACE_BOUND('',#205,.T.);
#262=FACE_BOUND('',#206,.T.);
#263=FACE_BOUND('',#207,.T.);
#264=FACE_BOUND('',#208,.T.);
#265=FACE_BOUND('',#209,.T.);
#266=FACE_BOUND('',#210,.T.);
#267=FACE_BOUND('',#211,.T.);
#268=FACE_BOUND('',#212,.T.);
#269=FACE_BOUND('',#213,.T.);
#270=FACE_BOUND('',#214,.T.);
#271=FACE_BOUND('',#215,.T.);
#272=FACE_BOUND('',#216,.T.);
#273=FACE_BOUND('',#217,.T.);
#274=FACE_BOUND('',#218,.T.);
#275=FACE_BOUND('',#219,.T.);
#276=FACE_BOUND('',#220,.T.);
#277=FACE_BOUND('',#221,.T.);
#278=FACE_BOUND('',#222,.T.);
#279=FACE_BOUND('',#223,.T.);
#280=FACE_BOUND('',#224,.T.);
#281=FACE_BOUND('',#225,.T.);
#282=FACE_BOUND('',#226,.T.);
#283=FACE_BOUND('',#227,.T.);
#284=FACE_BOUND('',#228,.T.);
#285=FACE_BOUND('',#229,.T.);
#286=FACE_BOUND('',#230,.T.);
#287=FACE_BOUND('',#231,.T.);
#288=FACE_BOUND('',#232,.T.);
#289=FACE_BOUND('',#233,.T.);
#290=FACE_BOUND('',#234,.T.);
#291=FACE_BOUND('',#235,.T.);
#292=FACE_BOUND('',#236,.T.);
#293=FACE_BOUND('',#237,.T.);
#294=FACE_BOUND('',#238,.T.);
#295=FACE_BOUND('',#239,.T.);
#296=FACE_BOUND('',#240,.T.);
#297=FACE_BOUND('',#241,.T.);
#298=FACE_BOUND('',#242,.T.);
#299=FACE_BOUND('',#243,.T.);
#300=FACE_BOUND('',#244,.T.);
#301=FACE_BOUND('',#245,.T.);
#302=FACE_BOUND('',#246,.T.);
#303=FACE_BOUND('',#247,.T.);
#304=CYLINDRICAL_SURFACE('',#357,35.);
#305=CYLINDRICAL_SURFACE('',#361,37.);
#306=CYLINDRICAL_SURFACE('',#365,35.);
#307=CYLINDRICAL_SURFACE('',#368,37.);
#308=CYLINDRICAL_SURFACE('',#371,37.);
#309=CYLINDRICAL_SURFACE('',#377,43.5);
#310=CYLINDRICAL_SURFACE('',#381,35.);
#311=CYLINDRICAL_SURFACE('',#389,43.5);
#312=CYLINDRICAL_SURFACE('',#394,43.5);
#313=CYLINDRICAL_SURFACE('',#398,35.);
#314=CYLINDRICAL_SURFACE('',#400,37.);
#315=CYLINDRICAL_SURFACE('',#404,43.5);
#316=ADVANCED_FACE('',(#248,#249),#304,.F.);
#317=ADVANCED_FACE('',(#250,#251),#305,.T.);
#318=ADVANCED_FACE('',(#252,#253),#306,.F.);
#319=ADVANCED_FACE('',(#254,#255),#307,.T.);
#320=ADVANCED_FACE('',(#256,#257),#308,.T.);
#321=ADVANCED_FACE('',(#258,#259),#32,.T.);
#322=ADVANCED_FACE('',(#260,#261),#309,.T.);
#323=ADVANCED_FACE('',(#262,#263),#28,.T.);
#324=ADVANCED_FACE('',(#264,#265),#310,.F.);
#325=ADVANCED_FACE('',(#266,#267),#29,.T.);
#326=ADVANCED_FACE('',(#268,#269),#33,.T.);
#327=ADVANCED_FACE('',(#270,#271),#311,.T.);
#328=ADVANCED_FACE('',(#272,#273),#34,.T.);
#329=ADVANCED_FACE('',(#274,#275),#312,.T.);
#330=ADVANCED_FACE('',(#276,#277),#30,.T.);
#331=ADVANCED_FACE('',(#278,#279),#313,.F.);
#332=ADVANCED_FACE('',(#280,#281),#314,.T.);
#333=ADVANCED_FACE('',(#282,#283),#31,.T.);
#334=ADVANCED_FACE('',(#284,#285),#315,.T.);
#335=ADVANCED_FACE('',(#286,#287),#35,.T.);
#336=ADVANCED_FACE('',(#288,#289),#20,.F.);
#337=ADVANCED_FACE('',(#290,#291),#21,.F.);
#338=ADVANCED_FACE('',(#292,#293),#22,.F.);
#339=ADVANCED_FACE('',(#294,#295),#23,.F.);
#340=ADVANCED_FACE('',(#296,#297),#24,.T.);
#341=ADVANCED_FACE('',(#298,#299),#25,.T.);
#342=ADVANCED_FACE('',(#300,#301),#26,.T.);
#343=ADVANCED_FACE('',(#302,#303),#27,.T.);
#344=CLOSED_SHELL('',(#316,#317,#318,#319,#320,#321,#322,#323,#324,#325,
#326,#327,#328,#329,#330,#331,#332,#333,#334,#335,#336,#337,#338,#339,#340,
#341,#342,#343));
#345=STYLED_ITEM('',(#346),#353);
#346=PRESENTATION_STYLE_ASSIGNMENT((#347));
#347=SURFACE_STYLE_USAGE(.BOTH.,#348);
#348=SURFACE_SIDE_STYLE('',(#349));
#349=SURFACE_STYLE_FILL_AREA(#350);
#350=FILL_AREA_STYLE('',(#351));
#351=FILL_AREA_STYLE_COLOUR('',#352);
#352=COLOUR_RGB('',0.506983280181885,0.531564235687256,0.550000011920929);
#353=MANIFOLD_SOLID_BREP('',#344);
#354=SHAPE_DEFINITION_REPRESENTATION(#634,#355);
#355=SHAPE_REPRESENTATION('33.063007.171.763',(#356),#629);
#356=AXIS2_PLACEMENT_3D('',#539,#417,#418);
#357=AXIS2_PLACEMENT_3D('',#540,#419,#420);
#358=AXIS2_PLACEMENT_3D('',#541,#421,#422);
#359=AXIS2_PLACEMENT_3D('',#544,#423,#424);
#360=AXIS2_PLACEMENT_3D('',#545,#425,#426);
#361=AXIS2_PLACEMENT_3D('',#547,#427,#428);
#362=AXIS2_PLACEMENT_3D('',#548,#429,#430);
#363=AXIS2_PLACEMENT_3D('',#550,#431,#432);
#364=AXIS2_PLACEMENT_3D('',#553,#433,#434);
#365=AXIS2_PLACEMENT_3D('',#554,#435,#436);
#366=AXIS2_PLACEMENT_3D('',#555,#437,#438);
#367=AXIS2_PLACEMENT_3D('',#557,#439,#440);
#368=AXIS2_PLACEMENT_3D('',#558,#441,#442);
#369=AXIS2_PLACEMENT_3D('',#559,#443,#444);
#370=AXIS2_PLACEMENT_3D('',#561,#445,#446);
#371=AXIS2_PLACEMENT_3D('',#562,#447,#448);
#372=AXIS2_PLACEMENT_3D('',#563,#449,#450);
#373=AXIS2_PLACEMENT_3D('',#565,#451,#452);
#374=AXIS2_PLACEMENT_3D('',#566,#453,#454);
#375=AXIS2_PLACEMENT_3D('',#567,#455,#456);
#376=AXIS2_PLACEMENT_3D('',#569,#457,#458);
#377=AXIS2_PLACEMENT_3D('',#571,#459,#460);
#378=AXIS2_PLACEMENT_3D('',#572,#461,#462);
#379=AXIS2_PLACEMENT_3D('',#574,#463,#464);
#380=AXIS2_PLACEMENT_3D('',#576,#465,#466);
#381=AXIS2_PLACEMENT_3D('',#577,#467,#468);
#382=AXIS2_PLACEMENT_3D('',#578,#469,#470);
#383=AXIS2_PLACEMENT_3D('',#579,#471,#472);
#384=AXIS2_PLACEMENT_3D('',#581,#473,#474);
#385=AXIS2_PLACEMENT_3D('',#582,#475,#476);
#386=AXIS2_PLACEMENT_3D('',#584,#477,#478);
#387=AXIS2_PLACEMENT_3D('',#585,#479,#480);
#388=AXIS2_PLACEMENT_3D('',#587,#481,#482);
#389=AXIS2_PLACEMENT_3D('',#589,#483,#484);
#390=AXIS2_PLACEMENT_3D('',#590,#485,#486);
#391=AXIS2_PLACEMENT_3D('',#592,#487,#488);
#392=AXIS2_PLACEMENT_3D('',#593,#489,#490);
#393=AXIS2_PLACEMENT_3D('',#595,#491,#492);
#394=AXIS2_PLACEMENT_3D('',#597,#493,#494);
#395=AXIS2_PLACEMENT_3D('',#598,#495,#496);
#396=AXIS2_PLACEMENT_3D('',#600,#497,#498);
#397=AXIS2_PLACEMENT_3D('',#602,#499,#500);
#398=AXIS2_PLACEMENT_3D('',#603,#501,#502);
#399=AXIS2_PLACEMENT_3D('',#604,#503,#504);
#400=AXIS2_PLACEMENT_3D('',#606,#505,#506);
#401=AXIS2_PLACEMENT_3D('',#607,#507,#508);
#402=AXIS2_PLACEMENT_3D('',#609,#509,#510);
#403=AXIS2_PLACEMENT_3D('',#610,#511,#512);
#404=AXIS2_PLACEMENT_3D('',#612,#513,#514);
#405=AXIS2_PLACEMENT_3D('',#613,#515,#516);
#406=AXIS2_PLACEMENT_3D('',#615,#517,#518);
#407=AXIS2_PLACEMENT_3D('',#616,#519,#520);
#408=AXIS2_PLACEMENT_3D('',#618,#521,#522);
#409=AXIS2_PLACEMENT_3D('',#620,#523,#524);
#410=AXIS2_PLACEMENT_3D('',#621,#525,#526);
#411=AXIS2_PLACEMENT_3D('',#622,#527,#528);
#412=AXIS2_PLACEMENT_3D('',#623,#529,#530);
#413=AXIS2_PLACEMENT_3D('',#624,#531,#532);
#414=AXIS2_PLACEMENT_3D('',#625,#533,#534);
#415=AXIS2_PLACEMENT_3D('',#626,#535,#536);
#416=AXIS2_PLACEMENT_3D('',#627,#537,#538);
#417=DIRECTION('',(0.,0.,1.));
#418=DIRECTION('',(1.,0.,0.));
#419=DIRECTION('',(-1.,0.,0.));
#420=DIRECTION('',(0.,0.,1.));
#421=DIRECTION('',(-0.707106781186547,0.,0.707106781186547));
#422=DIRECTION('',(-0.707106781186547,0.,-0.707106781186547));
#423=DIRECTION('',(-0.707106781186547,0.,-0.707106781186547));
#424=DIRECTION('',(-0.707106781186547,0.,0.707106781186547));
#425=DIRECTION('',(-1.,0.,0.));
#426=DIRECTION('',(0.,0.,1.));
#427=DIRECTION('',(-1.,0.,0.));
#428=DIRECTION('',(0.,0.,1.));
#429=DIRECTION('',(-1.,0.,0.));
#430=DIRECTION('',(0.,0.,1.));
#431=DIRECTION('',(-0.707106781186547,0.,-0.707106781186547));
#432=DIRECTION('',(-0.707106781186547,0.,0.707106781186547));
#433=DIRECTION('',(-0.707106781186547,0.,0.707106781186547));
#434=DIRECTION('',(-0.707106781186547,0.,-0.707106781186547));
#435=DIRECTION('',(0.,0.,-1.));
#436=DIRECTION('',(-1.,0.,0.));
#437=DIRECTION('',(0.,0.,-1.));
#438=DIRECTION('',(-1.,0.,0.));
#439=DIRECTION('',(-0.707106781186547,0.,-0.707106781186547));
#440=DIRECTION('',(-0.707106781186547,0.,0.707106781186547));
#441=DIRECTION('',(0.,0.,-1.));
#442=DIRECTION('',(-1.,0.,0.));
#443=DIRECTION('',(0.,0.,-1.));
#444=DIRECTION('',(-1.,0.,0.));
#445=DIRECTION('',(-0.707106781186547,0.,-0.707106781186547));
#446=DIRECTION('',(0.707106781186547,0.,-0.707106781186547));
#447=DIRECTION('',(-1.,0.,0.));
#448=DIRECTION('',(0.,0.,1.));
#449=DIRECTION('',(-1.,0.,0.));
#450=DIRECTION('',(0.,0.,1.));
#451=DIRECTION('',(-0.707106781186547,0.,0.707106781186547));
#452=DIRECTION('',(-0.707106781186547,0.,-0.707106781186547));
#453=DIRECTION('',(1.,0.,0.));
#454=DIRECTION('',(0.,0.,-1.));
#455=DIRECTION('',(-1.,0.,0.));
#456=DIRECTION('',(0.,0.,1.));
#457=DIRECTION('',(1.,0.,0.));
#458=DIRECTION('',(0.,0.,-1.));
#459=DIRECTION('',(-1.,0.,0.));
#460=DIRECTION('',(0.,0.,1.));
#461=DIRECTION('',(1.,0.,0.));
#462=DIRECTION('',(0.,0.,-1.));
#463=DIRECTION('',(-1.,0.,0.));
#464=DIRECTION('',(0.,0.,1.));
#465=DIRECTION('',(1.,0.,0.));
#466=DIRECTION('',(0.,0.,-1.));
#467=DIRECTION('',(-1.,0.,0.));
#468=DIRECTION('',(0.,0.,1.));
#469=DIRECTION('',(-0.707106781186547,0.,0.707106781186547));
#470=DIRECTION('',(-0.707106781186547,0.,-0.707106781186547));
#471=DIRECTION('',(-1.,0.,0.));
#472=DIRECTION('',(0.,0.,1.));
#473=DIRECTION('',(0.,0.,1.));
#474=DIRECTION('',(1.,0.,0.));
#475=DIRECTION('',(0.,0.,-1.));
#476=DIRECTION('',(-1.,0.,0.));
#477=DIRECTION('',(0.,0.,1.));
#478=DIRECTION('',(1.,0.,0.));
#479=DIRECTION('',(0.,0.,-1.));
#480=DIRECTION('',(-1.,0.,0.));
#481=DIRECTION('',(0.,0.,1.));
#482=DIRECTION('',(1.,0.,0.));
#483=DIRECTION('',(0.,0.,-1.));
#484=DIRECTION('',(-1.,0.,0.));
#485=DIRECTION('',(0.,0.,1.));
#486=DIRECTION('',(1.,0.,0.));
#487=DIRECTION('',(-1.,0.,0.));
#488=DIRECTION('',(0.,0.,1.));
#489=DIRECTION('',(1.,0.,0.));
#490=DIRECTION('',(0.,0.,-1.));
#491=DIRECTION('',(-1.,0.,0.));
#492=DIRECTION('',(0.,0.,1.));
#493=DIRECTION('',(-1.,0.,0.));
#494=DIRECTION('',(0.,0.,1.));
#495=DIRECTION('',(1.,0.,0.));
#496=DIRECTION('',(0.,0.,-1.));
#497=DIRECTION('',(-1.,0.,0.));
#498=DIRECTION('',(0.,0.,1.));
#499=DIRECTION('',(-1.,0.,0.));
#500=DIRECTION('',(0.,0.,1.));
#501=DIRECTION('',(0.,0.,-1.));
#502=DIRECTION('',(-1.,0.,0.));
#503=DIRECTION('',(0.,0.,-1.));
#504=DIRECTION('',(-1.,0.,0.));
#505=DIRECTION('',(0.,0.,-1.));
#506=DIRECTION('',(-1.,0.,0.));
#507=DIRECTION('',(0.,0.,-1.));
#508=DIRECTION('',(-1.,0.,0.));
#509=DIRECTION('',(0.,0.,-1.));
#510=DIRECTION('',(-1.,0.,0.));
#511=DIRECTION('',(0.,0.,-1.));
#512=DIRECTION('',(-1.,0.,0.));
#513=DIRECTION('',(0.,0.,-1.));
#514=DIRECTION('',(-1.,0.,0.));
#515=DIRECTION('',(0.,0.,1.));
#516=DIRECTION('',(1.,0.,0.));
#517=DIRECTION('',(0.,0.,-1.));
#518=DIRECTION('',(-1.,0.,0.));
#519=DIRECTION('',(0.,0.,1.));
#520=DIRECTION('',(1.,0.,0.));
#521=DIRECTION('',(0.,0.,-1.));
#522=DIRECTION('',(-1.,0.,0.));
#523=DIRECTION('',(0.,0.,-1.));
#524=DIRECTION('',(-1.,0.,0.));
#525=DIRECTION('',(0.,0.,-1.));
#526=DIRECTION('',(-1.,0.,0.));
#527=DIRECTION('',(-1.,0.,0.));
#528=DIRECTION('',(0.,0.,1.));
#529=DIRECTION('',(-1.,0.,0.));
#530=DIRECTION('',(0.,0.,1.));
#531=DIRECTION('',(1.,0.,0.));
#532=DIRECTION('',(0.,0.,-1.));
#533=DIRECTION('',(0.,0.,1.));
#534=DIRECTION('',(1.,0.,0.));
#535=DIRECTION('',(1.,0.,0.));
#536=DIRECTION('',(0.,0.,-1.));
#537=DIRECTION('',(0.,0.,1.));
#538=DIRECTION('',(1.,0.,0.));
#539=CARTESIAN_POINT('',(0.,0.,0.));
#540=CARTESIAN_POINT('',(0.,0.,0.));
#541=CARTESIAN_POINT('',(3.30643715532042E-15,0.,0.));
#542=CARTESIAN_POINT('',(3.30643715532042E-15,35.,0.));
#543=CARTESIAN_POINT('',(3.30643715532042E-15,-35.,0.));
#544=CARTESIAN_POINT('',(3.30643715532042E-15,0.,0.));
#545=CARTESIAN_POINT('',(75.,0.,0.));
#546=CARTESIAN_POINT('',(75.,0.,35.));
#547=CARTESIAN_POINT('',(0.,0.,0.));
#548=CARTESIAN_POINT('',(68.4910032612187,0.,0.));
#549=CARTESIAN_POINT('',(68.4910032612187,0.,37.));
#550=CARTESIAN_POINT('',(0.,0.,0.));
#551=CARTESIAN_POINT('',(0.,37.,0.));
#552=CARTESIAN_POINT('',(0.,-37.,0.));
#553=CARTESIAN_POINT('',(0.,0.,0.));
#554=CARTESIAN_POINT('',(0.,0.,0.));
#555=CARTESIAN_POINT('',(0.,0.,75.));
#556=CARTESIAN_POINT('',(-35.,0.,75.));
#557=CARTESIAN_POINT('',(3.30643715532042E-15,0.,0.));
#558=CARTESIAN_POINT('',(0.,0.,0.));
#559=CARTESIAN_POINT('',(0.,0.,68.4910032612187));
#560=CARTESIAN_POINT('',(-37.,0.,68.4910032612187));
#561=CARTESIAN_POINT('',(0.,0.,0.));
#562=CARTESIAN_POINT('',(0.,0.,0.));
#563=CARTESIAN_POINT('',(-68.4910032612187,0.,0.));
#564=CARTESIAN_POINT('',(-68.4910032612187,0.,37.));
#565=CARTESIAN_POINT('',(0.,0.,0.));
#566=CARTESIAN_POINT('',(69.2583302491977,0.,0.));
#567=CARTESIAN_POINT('',(70.7021017425348,0.,0.));
#568=CARTESIAN_POINT('',(70.7021017425348,0.,42.3882285676538));
#569=CARTESIAN_POINT('',(69.4569290875078,0.,0.));
#570=CARTESIAN_POINT('',(69.4569290875078,0.,-37.7411809548975));
#571=CARTESIAN_POINT('',(0.,0.,0.));
#572=CARTESIAN_POINT('',(72.1509904819684,0.,0.));
#573=CARTESIAN_POINT('',(72.1509904819684,0.,-43.5));
#574=CARTESIAN_POINT('',(75.,0.,0.));
#575=CARTESIAN_POINT('',(75.,0.,43.5));
#576=CARTESIAN_POINT('',(75.,0.,43.5));
#577=CARTESIAN_POINT('',(0.,0.,0.));
#578=CARTESIAN_POINT('',(3.30643715532042E-15,0.,0.));
#579=CARTESIAN_POINT('',(-75.,0.,0.));
#580=CARTESIAN_POINT('',(-75.,0.,35.));
#581=CARTESIAN_POINT('',(-43.5,0.,75.));
#582=CARTESIAN_POINT('',(0.,0.,75.));
#583=CARTESIAN_POINT('',(-43.5,0.,75.));
#584=CARTESIAN_POINT('',(0.,0.,69.2583302491977));
#585=CARTESIAN_POINT('',(0.,0.,70.7021017425348));
#586=CARTESIAN_POINT('',(-42.3882285676538,0.,70.7021017425348));
#587=CARTESIAN_POINT('',(0.,0.,69.4569290875078));
#588=CARTESIAN_POINT('',(37.7411809548975,0.,69.4569290875078));
#589=CARTESIAN_POINT('',(0.,0.,0.));
#590=CARTESIAN_POINT('',(0.,0.,72.1509904819684));
#591=CARTESIAN_POINT('',(43.5,0.,72.1509904819684));
#592=CARTESIAN_POINT('',(-71.,0.,0.));
#593=CARTESIAN_POINT('',(-70.7021017425348,0.,0.));
#594=CARTESIAN_POINT('',(-70.7021017425348,0.,-42.3882285676538));
#595=CARTESIAN_POINT('',(-69.4569290875078,0.,0.));
#596=CARTESIAN_POINT('',(-69.4569290875078,0.,37.7411809548975));
#597=CARTESIAN_POINT('',(0.,0.,0.));
#598=CARTESIAN_POINT('',(-72.1509904819684,0.,0.));
#599=CARTESIAN_POINT('',(-72.1509904819684,0.,-43.5));
#600=CARTESIAN_POINT('',(-75.,0.,0.));
#601=CARTESIAN_POINT('',(-75.,0.,43.5));
#602=CARTESIAN_POINT('',(-75.,0.,35.));
#603=CARTESIAN_POINT('',(0.,0.,0.));
#604=CARTESIAN_POINT('',(0.,0.,-75.));
#605=CARTESIAN_POINT('',(-35.,0.,-75.));
#606=CARTESIAN_POINT('',(0.,0.,0.));
#607=CARTESIAN_POINT('',(0.,0.,-68.4910032612187));
#608=CARTESIAN_POINT('',(-37.,0.,-68.4910032612187));
#609=CARTESIAN_POINT('',(-35.,0.,-75.));
#610=CARTESIAN_POINT('',(0.,0.,-75.));
#611=CARTESIAN_POINT('',(-43.5,0.,-75.));
#612=CARTESIAN_POINT('',(0.,0.,0.));
#613=CARTESIAN_POINT('',(0.,0.,-72.1509904819684));
#614=CARTESIAN_POINT('',(43.5,0.,-72.1509904819684));
#615=CARTESIAN_POINT('',(0.,0.,-71.));
#616=CARTESIAN_POINT('',(0.,0.,-70.7021017425348));
#617=CARTESIAN_POINT('',(42.3882285676538,0.,-70.7021017425348));
#618=CARTESIAN_POINT('',(0.,0.,-69.4569290875078));
#619=CARTESIAN_POINT('',(-37.7411809548975,0.,-69.4569290875078));
#620=CARTESIAN_POINT('',(0.,0.,68.4910032612187));
#621=CARTESIAN_POINT('',(0.,0.,-68.4910032612187));
#622=CARTESIAN_POINT('',(68.4910032612187,0.,0.));
#623=CARTESIAN_POINT('',(-68.4910032612187,0.,0.));
#624=CARTESIAN_POINT('',(72.1509904819684,0.,0.));
#625=CARTESIAN_POINT('',(0.,0.,-72.1509904819684));
#626=CARTESIAN_POINT('',(-72.1509904819684,0.,0.));
#627=CARTESIAN_POINT('',(0.,0.,72.1509904819684));
#628=MECHANICAL_DESIGN_GEOMETRIC_PRESENTATION_REPRESENTATION('',(#345),
#629);
#629=(
GEOMETRIC_REPRESENTATION_CONTEXT(3)
GLOBAL_UNCERTAINTY_ASSIGNED_CONTEXT((#630))
GLOBAL_UNIT_ASSIGNED_CONTEXT((#633,#632,#631))
REPRESENTATION_CONTEXT('33.063007.171.763','TOP_LEVEL_ASSEMBLY_PART')
);
#630=UNCERTAINTY_MEASURE_WITH_UNIT(LENGTH_MEASURE(0.005),#633,
'DISTANCE_ACCURACY_VALUE','Maximum Tolerance applied to model');
#631=(
NAMED_UNIT(*)
SI_UNIT($,.STERADIAN.)
SOLID_ANGLE_UNIT()
);
#632=(
NAMED_UNIT(*)
PLANE_ANGLE_UNIT()
SI_UNIT($,.RADIAN.)
);
#633=(
LENGTH_UNIT()
NAMED_UNIT(*)
SI_UNIT(.MILLI.,.METRE.)
);
#634=PRODUCT_DEFINITION_SHAPE('','',#635);
#635=PRODUCT_DEFINITION('','',#637,#636);
#636=PRODUCT_DEFINITION_CONTEXT('',#643,'design');
#637=PRODUCT_DEFINITION_FORMATION_WITH_SPECIFIED_SOURCE('','',#639,
 .NOT_KNOWN.);
#638=PRODUCT_RELATED_PRODUCT_CATEGORY('','',(#639));
#639=PRODUCT('33.063007.171.763','33.063007.171.763',
'33.063007.171.763',(#641));
#640=PRODUCT_CATEGORY('','');
#641=PRODUCT_CONTEXT('',#643,'mechanical');
#642=APPLICATION_PROTOCOL_DEFINITION('international standard',
'automotive_design',2010,#643);
#643=APPLICATION_CONTEXT(
'core data for automotive mechanical design processes');
ENDSEC;
END-ISO-10303-21;
