ISO-10303-21;
HEADER;
/* Generated by software containing ST-Developer
 * from STEP Tools, Inc. (www.steptools.com) 
 */
/* OPTION: strings as raw bytes, not using required /X/ escapes */

FILE_DESCRIPTION(
/* description */ (''),
/* implementation_level */ '2;1');

FILE_NAME(
/* name */ '33.080003.222.308',
/* time_stamp */ '2019-06-19T10:43:30+02:00',
/* author */ ('Murat Coskun Bicak'),
/* organization */ ('Evac AG'),
/* preprocessor_version */ 'ST-DEVELOPER v16.7',
/* originating_system */ 'DEX',
/* authorisation */ $);

FILE_SCHEMA (('AUTOMOTIVE_DESIGN {1 0 10303 214 3 1 1}'));
ENDSEC;

DATA;
#10=PROPERTY_DEFINITION_REPRESENTATION(#14,#12);
#11=PROPERTY_DEFINITION_REPRESENTATION(#15,#13);
#12=REPRESENTATION('',(#16),#429);
#13=REPRESENTATION('',(#17),#429);
#14=PROPERTY_DEFINITION('pmi validation property','',#438);
#15=PROPERTY_DEFINITION('pmi validation property','',#438);
#16=VALUE_REPRESENTATION_ITEM('number of annotations',COUNT_MEASURE(0.));
#17=VALUE_REPRESENTATION_ITEM('number of views',COUNT_MEASURE(0.));
#18=TOROIDAL_SURFACE('',#274,55.,2.);
#19=TOROIDAL_SURFACE('',#278,49.5,1.00000000000001);
#20=TOROIDAL_SURFACE('',#287,44.05,0.399999999999983);
#21=CONICAL_SURFACE('',#267,41.75,0.785398162499998);
#22=CONICAL_SURFACE('',#269,56.75,0.785398162499998);
#23=CONICAL_SURFACE('',#276,52.4210100716629,1.221730475);
#24=CONICAL_SURFACE('',#282,48.,0.785398162499998);
#25=CONTEXT_DEPENDENT_SHAPE_REPRESENTATION(#29,#440);
#26=CONTEXT_DEPENDENT_SHAPE_REPRESENTATION(#30,#442);
#27=NEXT_ASSEMBLY_USAGE_OCCURRENCE('33.080003.222.308-Rohr',
'33.080003.222.308-Rohr','33.080003.222.308-Rohr',#443,#444,'');
#28=NEXT_ASSEMBLY_USAGE_OCCURRENCE('32.080003.210.308',
'32.080003.210.308','32.080003.210.308',#443,#445,'');
#29=(
REPRESENTATION_RELATIONSHIP(' ',' ',#251,#252)
REPRESENTATION_RELATIONSHIP_WITH_TRANSFORMATION(#31)
SHAPE_REPRESENTATION_RELATIONSHIP()
);
#30=(
REPRESENTATION_RELATIONSHIP(' ',' ',#253,#252)
REPRESENTATION_RELATIONSHIP_WITH_TRANSFORMATION(#32)
SHAPE_REPRESENTATION_RELATIONSHIP()
);
#31=ITEM_DEFINED_TRANSFORMATION(' ',' ',#254,#263);
#32=ITEM_DEFINED_TRANSFORMATION(' ',' ',#254,#292);
#33=SHAPE_REPRESENTATION_RELATIONSHIP('','',#251,#35);
#34=SHAPE_REPRESENTATION_RELATIONSHIP('','',#253,#36);
#35=ADVANCED_BREP_SHAPE_REPRESENTATION('',(#246),#430);
#36=ADVANCED_BREP_SHAPE_REPRESENTATION('',(#247),#431);
#37=CYLINDRICAL_SURFACE('',#258,41.5);
#38=CYLINDRICAL_SURFACE('',#262,44.45);
#39=CYLINDRICAL_SURFACE('',#264,41.5);
#40=CYLINDRICAL_SURFACE('',#272,57.);
#41=CYLINDRICAL_SURFACE('',#280,48.5);
#42=CYLINDRICAL_SURFACE('',#284,44.45);
#43=ORIENTED_EDGE('',*,*,#79,.F.);
#44=ORIENTED_EDGE('',*,*,#80,.T.);
#45=ORIENTED_EDGE('',*,*,#81,.F.);
#46=ORIENTED_EDGE('',*,*,#79,.T.);
#47=ORIENTED_EDGE('',*,*,#82,.F.);
#48=ORIENTED_EDGE('',*,*,#81,.T.);
#49=ORIENTED_EDGE('',*,*,#80,.F.);
#50=ORIENTED_EDGE('',*,*,#82,.T.);
#51=ORIENTED_EDGE('',*,*,#83,.F.);
#52=ORIENTED_EDGE('',*,*,#84,.T.);
#53=ORIENTED_EDGE('',*,*,#84,.F.);
#54=ORIENTED_EDGE('',*,*,#85,.T.);
#55=ORIENTED_EDGE('',*,*,#86,.T.);
#56=ORIENTED_EDGE('',*,*,#87,.F.);
#57=ORIENTED_EDGE('',*,*,#88,.T.);
#58=ORIENTED_EDGE('',*,*,#86,.F.);
#59=ORIENTED_EDGE('',*,*,#89,.T.);
#60=ORIENTED_EDGE('',*,*,#88,.F.);
#61=ORIENTED_EDGE('',*,*,#90,.T.);
#62=ORIENTED_EDGE('',*,*,#89,.F.);
#63=ORIENTED_EDGE('',*,*,#91,.T.);
#64=ORIENTED_EDGE('',*,*,#90,.F.);
#65=ORIENTED_EDGE('',*,*,#92,.T.);
#66=ORIENTED_EDGE('',*,*,#91,.F.);
#67=ORIENTED_EDGE('',*,*,#93,.T.);
#68=ORIENTED_EDGE('',*,*,#92,.F.);
#69=ORIENTED_EDGE('',*,*,#94,.F.);
#70=ORIENTED_EDGE('',*,*,#95,.T.);
#71=ORIENTED_EDGE('',*,*,#96,.T.);
#72=ORIENTED_EDGE('',*,*,#95,.F.);
#73=ORIENTED_EDGE('',*,*,#96,.F.);
#74=ORIENTED_EDGE('',*,*,#83,.T.);
#75=ORIENTED_EDGE('',*,*,#93,.F.);
#76=ORIENTED_EDGE('',*,*,#94,.T.);
#77=ORIENTED_EDGE('',*,*,#87,.T.);
#78=ORIENTED_EDGE('',*,*,#85,.F.);
#79=EDGE_CURVE('',#97,#97,#115,.T.);
#80=EDGE_CURVE('',#98,#98,#116,.T.);
#81=EDGE_CURVE('',#99,#99,#117,.T.);
#82=EDGE_CURVE('',#100,#100,#118,.T.);
#83=EDGE_CURVE('',#101,#101,#119,.T.);
#84=EDGE_CURVE('',#102,#102,#120,.T.);
#85=EDGE_CURVE('',#103,#103,#121,.T.);
#86=EDGE_CURVE('',#104,#104,#122,.T.);
#87=EDGE_CURVE('',#105,#105,#123,.T.);
#88=EDGE_CURVE('',#106,#106,#124,.T.);
#89=EDGE_CURVE('',#107,#107,#125,.T.);
#90=EDGE_CURVE('',#108,#108,#126,.T.);
#91=EDGE_CURVE('',#109,#109,#127,.T.);
#92=EDGE_CURVE('',#110,#110,#128,.T.);
#93=EDGE_CURVE('',#111,#111,#129,.T.);
#94=EDGE_CURVE('',#112,#112,#130,.T.);
#95=EDGE_CURVE('',#113,#113,#131,.T.);
#96=EDGE_CURVE('',#114,#114,#132,.T.);
#97=VERTEX_POINT('',#374);
#98=VERTEX_POINT('',#376);
#99=VERTEX_POINT('',#379);
#100=VERTEX_POINT('',#382);
#101=VERTEX_POINT('',#387);
#102=VERTEX_POINT('',#389);
#103=VERTEX_POINT('',#392);
#104=VERTEX_POINT('',#395);
#105=VERTEX_POINT('',#397);
#106=VERTEX_POINT('',#400);
#107=VERTEX_POINT('',#403);
#108=VERTEX_POINT('',#406);
#109=VERTEX_POINT('',#409);
#110=VERTEX_POINT('',#412);
#111=VERTEX_POINT('',#415);
#112=VERTEX_POINT('',#418);
#113=VERTEX_POINT('',#420);
#114=VERTEX_POINT('',#423);
#115=CIRCLE('',#256,41.5);
#116=CIRCLE('',#257,44.45);
#117=CIRCLE('',#259,41.5);
#118=CIRCLE('',#261,44.45);
#119=CIRCLE('',#265,41.5);
#120=CIRCLE('',#266,41.5);
#121=CIRCLE('',#268,42.);
#122=CIRCLE('',#270,57.);
#123=CIRCLE('',#271,56.5);
#124=CIRCLE('',#273,57.);
#125=CIRCLE('',#275,55.6840402866513);
#126=CIRCLE('',#277,49.1579798566743);
#127=CIRCLE('',#279,48.5);
#128=CIRCLE('',#281,48.5);
#129=CIRCLE('',#283,47.5);
#130=CIRCLE('',#285,44.45);
#131=CIRCLE('',#286,44.45);
#132=CIRCLE('',#288,44.05);
#133=EDGE_LOOP('',(#43));
#134=EDGE_LOOP('',(#44));
#135=EDGE_LOOP('',(#45));
#136=EDGE_LOOP('',(#46));
#137=EDGE_LOOP('',(#47));
#138=EDGE_LOOP('',(#48));
#139=EDGE_LOOP('',(#49));
#140=EDGE_LOOP('',(#50));
#141=EDGE_LOOP('',(#51));
#142=EDGE_LOOP('',(#52));
#143=EDGE_LOOP('',(#53));
#144=EDGE_LOOP('',(#54));
#145=EDGE_LOOP('',(#55));
#146=EDGE_LOOP('',(#56));
#147=EDGE_LOOP('',(#57));
#148=EDGE_LOOP('',(#58));
#149=EDGE_LOOP('',(#59));
#150=EDGE_LOOP('',(#60));
#151=EDGE_LOOP('',(#61));
#152=EDGE_LOOP('',(#62));
#153=EDGE_LOOP('',(#63));
#154=EDGE_LOOP('',(#64));
#155=EDGE_LOOP('',(#65));
#156=EDGE_LOOP('',(#66));
#157=EDGE_LOOP('',(#67));
#158=EDGE_LOOP('',(#68));
#159=EDGE_LOOP('',(#69));
#160=EDGE_LOOP('',(#70));
#161=EDGE_LOOP('',(#71));
#162=EDGE_LOOP('',(#72));
#163=EDGE_LOOP('',(#73));
#164=EDGE_LOOP('',(#74));
#165=EDGE_LOOP('',(#75));
#166=EDGE_LOOP('',(#76));
#167=EDGE_LOOP('',(#77));
#168=EDGE_LOOP('',(#78));
#169=FACE_BOUND('',#133,.T.);
#170=FACE_BOUND('',#134,.T.);
#171=FACE_BOUND('',#135,.T.);
#172=FACE_BOUND('',#136,.T.);
#173=FACE_BOUND('',#137,.T.);
#174=FACE_BOUND('',#138,.T.);
#175=FACE_BOUND('',#139,.T.);
#176=FACE_BOUND('',#140,.T.);
#177=FACE_BOUND('',#141,.T.);
#178=FACE_BOUND('',#142,.T.);
#179=FACE_BOUND('',#143,.T.);
#180=FACE_BOUND('',#144,.T.);
#181=FACE_BOUND('',#145,.T.);
#182=FACE_BOUND('',#146,.T.);
#183=FACE_BOUND('',#147,.T.);
#184=FACE_BOUND('',#148,.T.);
#185=FACE_BOUND('',#149,.T.);
#186=FACE_BOUND('',#150,.T.);
#187=FACE_BOUND('',#151,.T.);
#188=FACE_BOUND('',#152,.T.);
#189=FACE_BOUND('',#153,.T.);
#190=FACE_BOUND('',#154,.T.);
#191=FACE_BOUND('',#155,.T.);
#192=FACE_BOUND('',#156,.T.);
#193=FACE_BOUND('',#157,.T.);
#194=FACE_BOUND('',#158,.T.);
#195=FACE_BOUND('',#159,.T.);
#196=FACE_BOUND('',#160,.T.);
#197=FACE_BOUND('',#161,.T.);
#198=FACE_BOUND('',#162,.T.);
#199=FACE_BOUND('',#163,.T.);
#200=FACE_BOUND('',#164,.T.);
#201=FACE_BOUND('',#165,.T.);
#202=FACE_BOUND('',#166,.T.);
#203=FACE_BOUND('',#167,.T.);
#204=FACE_BOUND('',#168,.T.);
#205=PLANE('',#255);
#206=PLANE('',#260);
#207=PLANE('',#289);
#208=PLANE('',#290);
#209=PLANE('',#291);
#210=ADVANCED_FACE('',(#169,#170),#205,.F.);
#211=ADVANCED_FACE('',(#171,#172),#37,.F.);
#212=ADVANCED_FACE('',(#173,#174),#206,.F.);
#213=ADVANCED_FACE('',(#175,#176),#38,.T.);
#214=ADVANCED_FACE('',(#177,#178),#39,.F.);
#215=ADVANCED_FACE('',(#179,#180),#21,.F.);
#216=ADVANCED_FACE('',(#181,#182),#22,.T.);
#217=ADVANCED_FACE('',(#183,#184),#40,.T.);
#218=ADVANCED_FACE('',(#185,#186),#18,.T.);
#219=ADVANCED_FACE('',(#187,#188),#23,.T.);
#220=ADVANCED_FACE('',(#189,#190),#19,.F.);
#221=ADVANCED_FACE('',(#191,#192),#41,.T.);
#222=ADVANCED_FACE('',(#193,#194),#24,.T.);
#223=ADVANCED_FACE('',(#195,#196),#42,.F.);
#224=ADVANCED_FACE('',(#197,#198),#20,.F.);
#225=ADVANCED_FACE('',(#199,#200),#207,.T.);
#226=ADVANCED_FACE('',(#201,#202),#208,.T.);
#227=ADVANCED_FACE('',(#203,#204),#209,.T.);
#228=CLOSED_SHELL('',(#210,#211,#212,#213));
#229=CLOSED_SHELL('',(#214,#215,#216,#217,#218,#219,#220,#221,#222,#223,
#224,#225,#226,#227));
#230=STYLED_ITEM('',(#232),#246);
#231=STYLED_ITEM('',(#233),#247);
#232=PRESENTATION_STYLE_ASSIGNMENT((#234));
#233=PRESENTATION_STYLE_ASSIGNMENT((#235));
#234=SURFACE_STYLE_USAGE(.BOTH.,#236);
#235=SURFACE_STYLE_USAGE(.BOTH.,#237);
#236=SURFACE_SIDE_STYLE('',(#238));
#237=SURFACE_SIDE_STYLE('',(#239));
#238=SURFACE_STYLE_FILL_AREA(#240);
#239=SURFACE_STYLE_FILL_AREA(#241);
#240=FILL_AREA_STYLE('',(#242));
#241=FILL_AREA_STYLE('',(#243));
#242=FILL_AREA_STYLE_COLOUR('',#244);
#243=FILL_AREA_STYLE_COLOUR('',#245);
#244=COLOUR_RGB('',0.506983280181885,0.531564235687256,0.550000011920929);
#245=COLOUR_RGB('',0.423529446125031,0.423529446125031,0.470588266849518);
#246=MANIFOLD_SOLID_BREP('',#228);
#247=MANIFOLD_SOLID_BREP('32.210.308',#229);
#248=SHAPE_DEFINITION_REPRESENTATION(#439,#251);
#249=SHAPE_DEFINITION_REPRESENTATION(#438,#252);
#250=SHAPE_DEFINITION_REPRESENTATION(#441,#253);
#251=SHAPE_REPRESENTATION('33.080003.222.308-Rohr',(#254),#430);
#252=SHAPE_REPRESENTATION('33.080003.222.308',(#254,#263,#292),#429);
#253=SHAPE_REPRESENTATION('32.080003.210.308',(#254),#431);
#254=AXIS2_PLACEMENT_3D('',#371,#293,#294);
#255=AXIS2_PLACEMENT_3D('',#372,#295,#296);
#256=AXIS2_PLACEMENT_3D('',#373,#297,#298);
#257=AXIS2_PLACEMENT_3D('',#375,#299,#300);
#258=AXIS2_PLACEMENT_3D('',#377,#301,#302);
#259=AXIS2_PLACEMENT_3D('',#378,#303,#304);
#260=AXIS2_PLACEMENT_3D('',#380,#305,#306);
#261=AXIS2_PLACEMENT_3D('',#381,#307,#308);
#262=AXIS2_PLACEMENT_3D('',#383,#309,#310);
#263=AXIS2_PLACEMENT_3D('',#384,#311,#312);
#264=AXIS2_PLACEMENT_3D('',#385,#313,#314);
#265=AXIS2_PLACEMENT_3D('',#386,#315,#316);
#266=AXIS2_PLACEMENT_3D('',#388,#317,#318);
#267=AXIS2_PLACEMENT_3D('',#390,#319,#320);
#268=AXIS2_PLACEMENT_3D('',#391,#321,#322);
#269=AXIS2_PLACEMENT_3D('',#393,#323,#324);
#270=AXIS2_PLACEMENT_3D('',#394,#325,#326);
#271=AXIS2_PLACEMENT_3D('',#396,#327,#328);
#272=AXIS2_PLACEMENT_3D('',#398,#329,#330);
#273=AXIS2_PLACEMENT_3D('',#399,#331,#332);
#274=AXIS2_PLACEMENT_3D('',#401,#333,#334);
#275=AXIS2_PLACEMENT_3D('',#402,#335,#336);
#276=AXIS2_PLACEMENT_3D('',#404,#337,#338);
#277=AXIS2_PLACEMENT_3D('',#405,#339,#340);
#278=AXIS2_PLACEMENT_3D('',#407,#341,#342);
#279=AXIS2_PLACEMENT_3D('',#408,#343,#344);
#280=AXIS2_PLACEMENT_3D('',#410,#345,#346);
#281=AXIS2_PLACEMENT_3D('',#411,#347,#348);
#282=AXIS2_PLACEMENT_3D('',#413,#349,#350);
#283=AXIS2_PLACEMENT_3D('',#414,#351,#352);
#284=AXIS2_PLACEMENT_3D('',#416,#353,#354);
#285=AXIS2_PLACEMENT_3D('',#417,#355,#356);
#286=AXIS2_PLACEMENT_3D('',#419,#357,#358);
#287=AXIS2_PLACEMENT_3D('',#421,#359,#360);
#288=AXIS2_PLACEMENT_3D('',#422,#361,#362);
#289=AXIS2_PLACEMENT_3D('',#424,#363,#364);
#290=AXIS2_PLACEMENT_3D('',#425,#365,#366);
#291=AXIS2_PLACEMENT_3D('',#426,#367,#368);
#292=AXIS2_PLACEMENT_3D('',#427,#369,#370);
#293=DIRECTION('',(0.,0.,1.));
#294=DIRECTION('',(1.,0.,0.));
#295=DIRECTION('',(1.,0.,0.));
#296=DIRECTION('',(0.,0.,-1.));
#297=DIRECTION('',(-1.,0.,0.));
#298=DIRECTION('',(0.,0.,1.));
#299=DIRECTION('',(-1.,0.,0.));
#300=DIRECTION('',(0.,0.,1.));
#301=DIRECTION('',(-1.,0.,0.));
#302=DIRECTION('',(0.,0.,1.));
#303=DIRECTION('',(-1.,0.,0.));
#304=DIRECTION('',(0.,0.,1.));
#305=DIRECTION('',(-1.,0.,0.));
#306=DIRECTION('',(0.,0.,1.));
#307=DIRECTION('',(-1.,0.,0.));
#308=DIRECTION('',(0.,0.,1.));
#309=DIRECTION('',(-1.,0.,0.));
#310=DIRECTION('',(0.,0.,1.));
#311=DIRECTION('',(0.,0.,1.));
#312=DIRECTION('',(1.,0.,0.));
#313=DIRECTION('',(1.,0.,0.));
#314=DIRECTION('',(0.,1.,0.));
#315=DIRECTION('',(1.,0.,0.));
#316=DIRECTION('',(0.,1.,0.));
#317=DIRECTION('',(1.,0.,0.));
#318=DIRECTION('',(0.,1.,0.));
#319=DIRECTION('',(1.,0.,0.));
#320=DIRECTION('',(0.,1.,0.));
#321=DIRECTION('',(1.,0.,0.));
#322=DIRECTION('',(0.,1.,0.));
#323=DIRECTION('',(-1.,0.,0.));
#324=DIRECTION('',(0.,1.,0.));
#325=DIRECTION('',(1.,0.,0.));
#326=DIRECTION('',(0.,1.,0.));
#327=DIRECTION('',(1.,0.,0.));
#328=DIRECTION('',(0.,1.,0.));
#329=DIRECTION('',(1.,0.,0.));
#330=DIRECTION('',(0.,1.,0.));
#331=DIRECTION('',(1.,0.,0.));
#332=DIRECTION('',(0.,1.,0.));
#333=DIRECTION('',(1.,0.,0.));
#334=DIRECTION('',(0.,0.,-1.));
#335=DIRECTION('',(1.,0.,0.));
#336=DIRECTION('',(0.,1.,0.));
#337=DIRECTION('',(1.,0.,0.));
#338=DIRECTION('',(0.,1.,0.));
#339=DIRECTION('',(1.,0.,0.));
#340=DIRECTION('',(0.,1.,0.));
#341=DIRECTION('',(1.,-4.29386999004162E-17,4.29386999004162E-17));
#342=DIRECTION('',(4.29386999004162E-17,1.,0.));
#343=DIRECTION('',(1.,0.,0.));
#344=DIRECTION('',(0.,1.,0.));
#345=DIRECTION('',(1.,0.,0.));
#346=DIRECTION('',(0.,1.,0.));
#347=DIRECTION('',(1.,0.,0.));
#348=DIRECTION('',(0.,1.,0.));
#349=DIRECTION('',(1.,0.,0.));
#350=DIRECTION('',(0.,1.,0.));
#351=DIRECTION('',(1.,0.,0.));
#352=DIRECTION('',(0.,1.,0.));
#353=DIRECTION('',(1.,0.,0.));
#354=DIRECTION('',(0.,1.,0.));
#355=DIRECTION('',(1.,0.,0.));
#356=DIRECTION('',(0.,1.,0.));
#357=DIRECTION('',(1.,0.,0.));
#358=DIRECTION('',(0.,1.,0.));
#359=DIRECTION('',(1.,-1.75618799592703E-16,1.75618799592703E-16));
#360=DIRECTION('',(1.75618799592703E-16,1.,0.));
#361=DIRECTION('',(1.,0.,0.));
#362=DIRECTION('',(0.,1.,0.));
#363=DIRECTION('',(-1.,0.,0.));
#364=DIRECTION('',(0.,0.,1.));
#365=DIRECTION('',(-1.,0.,0.));
#366=DIRECTION('',(0.,0.,1.));
#367=DIRECTION('',(1.,0.,0.));
#368=DIRECTION('',(0.,1.,0.));
#369=DIRECTION('',(-3.33893309350341E-17,0.235329511158313,0.971915645093745));
#370=DIRECTION('',(1.,8.45677694538692E-17,1.38777878078145E-17));
#371=CARTESIAN_POINT('',(0.,0.,0.));
#372=CARTESIAN_POINT('',(-42.5,0.,44.45));
#373=CARTESIAN_POINT('',(-42.5,0.,0.));
#374=CARTESIAN_POINT('',(-42.5,0.,41.5));
#375=CARTESIAN_POINT('',(-42.5,0.,0.));
#376=CARTESIAN_POINT('',(-42.5,0.,44.45));
#377=CARTESIAN_POINT('',(0.,0.,0.));
#378=CARTESIAN_POINT('',(42.5,0.,0.));
#379=CARTESIAN_POINT('',(42.5,0.,41.5));
#380=CARTESIAN_POINT('',(42.5,0.,41.5));
#381=CARTESIAN_POINT('',(42.5,0.,0.));
#382=CARTESIAN_POINT('',(42.5,0.,44.45));
#383=CARTESIAN_POINT('',(0.,0.,0.));
#384=CARTESIAN_POINT('',(0.,0.,0.));
#385=CARTESIAN_POINT('',(2.25,0.,0.));
#386=CARTESIAN_POINT('',(-5.,0.,0.));
#387=CARTESIAN_POINT('',(-5.,41.5,0.));
#388=CARTESIAN_POINT('',(9.5,0.,0.));
#389=CARTESIAN_POINT('',(9.5,41.5,0.));
#390=CARTESIAN_POINT('',(9.75,0.,0.));
#391=CARTESIAN_POINT('',(10.,0.,0.));
#392=CARTESIAN_POINT('',(10.,42.,0.));
#393=CARTESIAN_POINT('',(9.75,0.,0.));
#394=CARTESIAN_POINT('',(9.5,0.,0.));
#395=CARTESIAN_POINT('',(9.5,57.,0.));
#396=CARTESIAN_POINT('',(10.,0.,0.));
#397=CARTESIAN_POINT('',(10.,56.5,0.));
#398=CARTESIAN_POINT('',(6.47020753820971,0.,0.));
#399=CARTESIAN_POINT('',(3.44041507641942,0.,0.));
#400=CARTESIAN_POINT('',(3.44041507641942,57.,0.));
#401=CARTESIAN_POINT('',(3.44041507641943,0.,0.));
#402=CARTESIAN_POINT('',(1.5610298348476,0.,0.));
#403=CARTESIAN_POINT('',(1.5610298348476,55.6840402866513,0.));
#404=CARTESIAN_POINT('',(0.373383963080539,0.,0.));
#405=CARTESIAN_POINT('',(-0.814261908686523,0.,0.));
#406=CARTESIAN_POINT('',(-0.814261908686523,49.1579798566743,0.));
#407=CARTESIAN_POINT('',(-1.75395452947247,1.04460724510562E-13,-4.85722573273506E-14));
#408=CARTESIAN_POINT('',(-1.75395452947243,0.,0.));
#409=CARTESIAN_POINT('',(-1.75395452947243,48.5,0.));
#410=CARTESIAN_POINT('',(-5.37697726473622,0.,0.));
#411=CARTESIAN_POINT('',(-9.,0.,0.));
#412=CARTESIAN_POINT('',(-9.,48.5,0.));
#413=CARTESIAN_POINT('',(-9.5,0.,0.));
#414=CARTESIAN_POINT('',(-10.,0.,0.));
#415=CARTESIAN_POINT('',(-10.,47.5,0.));
#416=CARTESIAN_POINT('',(-7.7,0.,0.));
#417=CARTESIAN_POINT('',(-10.,0.,0.));
#418=CARTESIAN_POINT('',(-10.,44.45,0.));
#419=CARTESIAN_POINT('',(-5.4,0.,0.));
#420=CARTESIAN_POINT('',(-5.4,44.45,0.));
#421=CARTESIAN_POINT('',(-5.39999999999995,1.46255472597681E-14,-2.77555756156289E-14));
#422=CARTESIAN_POINT('',(-5.,0.,0.));
#423=CARTESIAN_POINT('',(-5.,44.05,0.));
#424=CARTESIAN_POINT('',(-5.,42.775,0.));
#425=CARTESIAN_POINT('',(-10.,45.975,0.));
#426=CARTESIAN_POINT('',(10.,49.25,0.));
#427=CARTESIAN_POINT('',(47.5,1.45845959734252E-16,2.39336959563909E-17));
#428=MECHANICAL_DESIGN_GEOMETRIC_PRESENTATION_REPRESENTATION('',(#230,#231),
#429);
#429=(
GEOMETRIC_REPRESENTATION_CONTEXT(3)
GLOBAL_UNCERTAINTY_ASSIGNED_CONTEXT((#432))
GLOBAL_UNIT_ASSIGNED_CONTEXT((#437,#436,#435))
REPRESENTATION_CONTEXT('33.080003.222.308','TOP_LEVEL_ASSEMBLY_PART')
);
#430=(
GEOMETRIC_REPRESENTATION_CONTEXT(3)
GLOBAL_UNCERTAINTY_ASSIGNED_CONTEXT((#433))
GLOBAL_UNIT_ASSIGNED_CONTEXT((#437,#436,#435))
REPRESENTATION_CONTEXT('33.080003.222.308-Rohr','COMPONENT_PART')
);
#431=(
GEOMETRIC_REPRESENTATION_CONTEXT(3)
GLOBAL_UNCERTAINTY_ASSIGNED_CONTEXT((#434))
GLOBAL_UNIT_ASSIGNED_CONTEXT((#437,#436,#435))
REPRESENTATION_CONTEXT('32.080003.210.308','COMPONENT_PART')
);
#432=UNCERTAINTY_MEASURE_WITH_UNIT(LENGTH_MEASURE(0.005),#437,
'DISTANCE_ACCURACY_VALUE','Maximum Tolerance applied to model');
#433=UNCERTAINTY_MEASURE_WITH_UNIT(LENGTH_MEASURE(0.005),#437,
'DISTANCE_ACCURACY_VALUE','Maximum Tolerance applied to model');
#434=UNCERTAINTY_MEASURE_WITH_UNIT(LENGTH_MEASURE(0.005),#437,
'DISTANCE_ACCURACY_VALUE','Maximum Tolerance applied to model');
#435=(
NAMED_UNIT(*)
SI_UNIT($,.STERADIAN.)
SOLID_ANGLE_UNIT()
);
#436=(
NAMED_UNIT(*)
PLANE_ANGLE_UNIT()
SI_UNIT($,.RADIAN.)
);
#437=(
LENGTH_UNIT()
NAMED_UNIT(*)
SI_UNIT(.MILLI.,.METRE.)
);
#438=PRODUCT_DEFINITION_SHAPE('','',#443);
#439=PRODUCT_DEFINITION_SHAPE('','',#444);
#440=PRODUCT_DEFINITION_SHAPE(' ','NAUO PRDDFN',#27);
#441=PRODUCT_DEFINITION_SHAPE('','',#445);
#442=PRODUCT_DEFINITION_SHAPE(' ','NAUO PRDDFN',#28);
#443=PRODUCT_DEFINITION('','',#449,#446);
#444=PRODUCT_DEFINITION('','',#450,#447);
#445=PRODUCT_DEFINITION('','',#451,#448);
#446=PRODUCT_DEFINITION_CONTEXT('',#465,'design');
#447=PRODUCT_DEFINITION_CONTEXT('',#465,'design');
#448=PRODUCT_DEFINITION_CONTEXT('',#465,'design');
#449=PRODUCT_DEFINITION_FORMATION_WITH_SPECIFIED_SOURCE('','',#455,
 .NOT_KNOWN.);
#450=PRODUCT_DEFINITION_FORMATION_WITH_SPECIFIED_SOURCE('','',#456,
 .NOT_KNOWN.);
#451=PRODUCT_DEFINITION_FORMATION_WITH_SPECIFIED_SOURCE('','',#457,
 .NOT_KNOWN.);
#452=PRODUCT_RELATED_PRODUCT_CATEGORY('','',(#455));
#453=PRODUCT_RELATED_PRODUCT_CATEGORY('','',(#456));
#454=PRODUCT_RELATED_PRODUCT_CATEGORY('','',(#457));
#455=PRODUCT('33.080003.222.308','33.080003.222.308',
'33.080003.222.308',(#461));
#456=PRODUCT('33.080003.222.308-Rohr','33.080003.222.308-Rohr',
'33.080003.222.308-Rohr',(#462));
#457=PRODUCT('32.080003.210.308','32.080003.210.308',
'32.080003.210.308',(#463));
#458=PRODUCT_CATEGORY('','');
#459=PRODUCT_CATEGORY('','');
#460=PRODUCT_CATEGORY('','');
#461=PRODUCT_CONTEXT('',#465,'mechanical');
#462=PRODUCT_CONTEXT('',#465,'mechanical');
#463=PRODUCT_CONTEXT('',#465,'mechanical');
#464=APPLICATION_PROTOCOL_DEFINITION('international standard',
'automotive_design',2010,#465);
#465=APPLICATION_CONTEXT(
'core data for automotive mechanical design processes');
ENDSEC;
END-ISO-10303-21;
