ISO-10303-21;
HEADER;
/* Generated by software containing ST-Developer
 * from STEP Tools, Inc. (www.steptools.com) 
 */
/* OPTION: strings as raw bytes, not using required /X/ escapes */

FILE_DESCRIPTION(
/* description */ (''),
/* implementation_level */ '2;1');

FILE_NAME(
/* name */ '33.080003.250.308',
/* time_stamp */ '2019-06-18T10:19:59+02:00',
/* author */ ('Murat Coskun Bicak'),
/* organization */ ('Evac AG'),
/* preprocessor_version */ 'ST-DEVELOPER v16.7',
/* originating_system */ 'DEX',
/* authorisation */ $);

FILE_SCHEMA (('AUTOMOTIVE_DESIGN {1 0 10303 214 3 1 1}'));
ENDSEC;

DATA;
#10=PROPERTY_DEFINITION_REPRESENTATION(#14,#12);
#11=PROPERTY_DEFINITION_REPRESENTATION(#15,#13);
#12=REPRESENTATION('',(#16),#477);
#13=REPRESENTATION('',(#17),#477);
#14=PROPERTY_DEFINITION('pmi validation property','',#486);
#15=PROPERTY_DEFINITION('pmi validation property','',#486);
#16=VALUE_REPRESENTATION_ITEM('number of annotations',COUNT_MEASURE(0.));
#17=VALUE_REPRESENTATION_ITEM('number of views',COUNT_MEASURE(0.));
#18=TOROIDAL_SURFACE('',#304,55.,2.);
#19=TOROIDAL_SURFACE('',#308,49.5,1.00000000000001);
#20=TOROIDAL_SURFACE('',#317,44.05,0.399999999999983);
#21=CONICAL_SURFACE('',#297,41.75,0.785398162499998);
#22=CONICAL_SURFACE('',#299,56.75,0.785398162499998);
#23=CONICAL_SURFACE('',#306,52.4210100716629,1.221730475);
#24=CONICAL_SURFACE('',#312,48.,0.785398162499998);
#25=CONTEXT_DEPENDENT_SHAPE_REPRESENTATION(#31,#488);
#26=CONTEXT_DEPENDENT_SHAPE_REPRESENTATION(#32,#490);
#27=CONTEXT_DEPENDENT_SHAPE_REPRESENTATION(#33,#491);
#28=NEXT_ASSEMBLY_USAGE_OCCURRENCE('33.080003.250.308-Rohr',
'33.080003.250.308-Rohr','33.080003.250.308-Rohr',#492,#493,'');
#29=NEXT_ASSEMBLY_USAGE_OCCURRENCE('32.080003.210.308',
'32.080003.210.308','32.080003.210.308',#492,#494,'');
#30=NEXT_ASSEMBLY_USAGE_OCCURRENCE('32.080003.210.308',
'32.080003.210.308','32.080003.210.308',#492,#494,'');
#31=(
REPRESENTATION_RELATIONSHIP(' ',' ',#277,#278)
REPRESENTATION_RELATIONSHIP_WITH_TRANSFORMATION(#34)
SHAPE_REPRESENTATION_RELATIONSHIP()
);
#32=(
REPRESENTATION_RELATIONSHIP(' ',' ',#279,#278)
REPRESENTATION_RELATIONSHIP_WITH_TRANSFORMATION(#35)
SHAPE_REPRESENTATION_RELATIONSHIP()
);
#33=(
REPRESENTATION_RELATIONSHIP(' ',' ',#279,#278)
REPRESENTATION_RELATIONSHIP_WITH_TRANSFORMATION(#36)
SHAPE_REPRESENTATION_RELATIONSHIP()
);
#34=ITEM_DEFINED_TRANSFORMATION(' ',' ',#280,#293);
#35=ITEM_DEFINED_TRANSFORMATION(' ',' ',#280,#322);
#36=ITEM_DEFINED_TRANSFORMATION(' ',' ',#280,#323);
#37=SHAPE_REPRESENTATION_RELATIONSHIP('','',#277,#39);
#38=SHAPE_REPRESENTATION_RELATIONSHIP('','',#279,#40);
#39=ADVANCED_BREP_SHAPE_REPRESENTATION('',(#272),#478);
#40=ADVANCED_BREP_SHAPE_REPRESENTATION('',(#273),#479);
#41=PLANE('',#287);
#42=PLANE('',#292);
#43=PLANE('',#319);
#44=PLANE('',#320);
#45=PLANE('',#321);
#46=ELLIPSE('',#283,62.8617928474841,44.45);
#47=ELLIPSE('',#286,58.6898628384834,41.5);
#48=ORIENTED_EDGE('',*,*,#88,.T.);
#49=ORIENTED_EDGE('',*,*,#89,.F.);
#50=ORIENTED_EDGE('',*,*,#90,.F.);
#51=ORIENTED_EDGE('',*,*,#91,.F.);
#52=ORIENTED_EDGE('',*,*,#88,.F.);
#53=ORIENTED_EDGE('',*,*,#90,.T.);
#54=ORIENTED_EDGE('',*,*,#92,.F.);
#55=ORIENTED_EDGE('',*,*,#89,.T.);
#56=ORIENTED_EDGE('',*,*,#93,.T.);
#57=ORIENTED_EDGE('',*,*,#91,.T.);
#58=ORIENTED_EDGE('',*,*,#92,.T.);
#59=ORIENTED_EDGE('',*,*,#93,.F.);
#60=ORIENTED_EDGE('',*,*,#94,.F.);
#61=ORIENTED_EDGE('',*,*,#95,.T.);
#62=ORIENTED_EDGE('',*,*,#95,.F.);
#63=ORIENTED_EDGE('',*,*,#96,.T.);
#64=ORIENTED_EDGE('',*,*,#97,.T.);
#65=ORIENTED_EDGE('',*,*,#98,.F.);
#66=ORIENTED_EDGE('',*,*,#99,.T.);
#67=ORIENTED_EDGE('',*,*,#97,.F.);
#68=ORIENTED_EDGE('',*,*,#100,.T.);
#69=ORIENTED_EDGE('',*,*,#99,.F.);
#70=ORIENTED_EDGE('',*,*,#101,.T.);
#71=ORIENTED_EDGE('',*,*,#100,.F.);
#72=ORIENTED_EDGE('',*,*,#102,.T.);
#73=ORIENTED_EDGE('',*,*,#101,.F.);
#74=ORIENTED_EDGE('',*,*,#103,.T.);
#75=ORIENTED_EDGE('',*,*,#102,.F.);
#76=ORIENTED_EDGE('',*,*,#104,.T.);
#77=ORIENTED_EDGE('',*,*,#103,.F.);
#78=ORIENTED_EDGE('',*,*,#105,.F.);
#79=ORIENTED_EDGE('',*,*,#106,.T.);
#80=ORIENTED_EDGE('',*,*,#107,.T.);
#81=ORIENTED_EDGE('',*,*,#106,.F.);
#82=ORIENTED_EDGE('',*,*,#107,.F.);
#83=ORIENTED_EDGE('',*,*,#94,.T.);
#84=ORIENTED_EDGE('',*,*,#104,.F.);
#85=ORIENTED_EDGE('',*,*,#105,.T.);
#86=ORIENTED_EDGE('',*,*,#98,.T.);
#87=ORIENTED_EDGE('',*,*,#96,.F.);
#88=EDGE_CURVE('',#108,#108,#128,.T.);
#89=EDGE_CURVE('',#109,#109,#46,.T.);
#90=EDGE_CURVE('',#110,#110,#129,.T.);
#91=EDGE_CURVE('',#111,#111,#47,.F.);
#92=EDGE_CURVE('',#112,#112,#130,.T.);
#93=EDGE_CURVE('',#113,#113,#131,.T.);
#94=EDGE_CURVE('',#114,#114,#132,.T.);
#95=EDGE_CURVE('',#115,#115,#133,.T.);
#96=EDGE_CURVE('',#116,#116,#134,.T.);
#97=EDGE_CURVE('',#117,#117,#135,.T.);
#98=EDGE_CURVE('',#118,#118,#136,.T.);
#99=EDGE_CURVE('',#119,#119,#137,.T.);
#100=EDGE_CURVE('',#120,#120,#138,.T.);
#101=EDGE_CURVE('',#121,#121,#139,.T.);
#102=EDGE_CURVE('',#122,#122,#140,.T.);
#103=EDGE_CURVE('',#123,#123,#141,.T.);
#104=EDGE_CURVE('',#124,#124,#142,.T.);
#105=EDGE_CURVE('',#125,#125,#143,.T.);
#106=EDGE_CURVE('',#126,#126,#144,.T.);
#107=EDGE_CURVE('',#127,#127,#145,.T.);
#108=VERTEX_POINT('',#415);
#109=VERTEX_POINT('',#417);
#110=VERTEX_POINT('',#420);
#111=VERTEX_POINT('',#422);
#112=VERTEX_POINT('',#426);
#113=VERTEX_POINT('',#429);
#114=VERTEX_POINT('',#434);
#115=VERTEX_POINT('',#436);
#116=VERTEX_POINT('',#439);
#117=VERTEX_POINT('',#442);
#118=VERTEX_POINT('',#444);
#119=VERTEX_POINT('',#447);
#120=VERTEX_POINT('',#450);
#121=VERTEX_POINT('',#453);
#122=VERTEX_POINT('',#456);
#123=VERTEX_POINT('',#459);
#124=VERTEX_POINT('',#462);
#125=VERTEX_POINT('',#465);
#126=VERTEX_POINT('',#467);
#127=VERTEX_POINT('',#470);
#128=CIRCLE('',#282,44.45);
#129=CIRCLE('',#285,41.5);
#130=CIRCLE('',#289,44.45);
#131=CIRCLE('',#291,41.5);
#132=CIRCLE('',#295,41.5);
#133=CIRCLE('',#296,41.5);
#134=CIRCLE('',#298,42.);
#135=CIRCLE('',#300,57.);
#136=CIRCLE('',#301,56.5);
#137=CIRCLE('',#303,57.);
#138=CIRCLE('',#305,55.6840402866513);
#139=CIRCLE('',#307,49.1579798566743);
#140=CIRCLE('',#309,48.5);
#141=CIRCLE('',#311,48.5);
#142=CIRCLE('',#313,47.5);
#143=CIRCLE('',#315,44.45);
#144=CIRCLE('',#316,44.45);
#145=CIRCLE('',#318,44.05);
#146=EDGE_LOOP('',(#48));
#147=EDGE_LOOP('',(#49));
#148=EDGE_LOOP('',(#50));
#149=EDGE_LOOP('',(#51));
#150=EDGE_LOOP('',(#52));
#151=EDGE_LOOP('',(#53));
#152=EDGE_LOOP('',(#54));
#153=EDGE_LOOP('',(#55));
#154=EDGE_LOOP('',(#56));
#155=EDGE_LOOP('',(#57));
#156=EDGE_LOOP('',(#58));
#157=EDGE_LOOP('',(#59));
#158=EDGE_LOOP('',(#60));
#159=EDGE_LOOP('',(#61));
#160=EDGE_LOOP('',(#62));
#161=EDGE_LOOP('',(#63));
#162=EDGE_LOOP('',(#64));
#163=EDGE_LOOP('',(#65));
#164=EDGE_LOOP('',(#66));
#165=EDGE_LOOP('',(#67));
#166=EDGE_LOOP('',(#68));
#167=EDGE_LOOP('',(#69));
#168=EDGE_LOOP('',(#70));
#169=EDGE_LOOP('',(#71));
#170=EDGE_LOOP('',(#72));
#171=EDGE_LOOP('',(#73));
#172=EDGE_LOOP('',(#74));
#173=EDGE_LOOP('',(#75));
#174=EDGE_LOOP('',(#76));
#175=EDGE_LOOP('',(#77));
#176=EDGE_LOOP('',(#78));
#177=EDGE_LOOP('',(#79));
#178=EDGE_LOOP('',(#80));
#179=EDGE_LOOP('',(#81));
#180=EDGE_LOOP('',(#82));
#181=EDGE_LOOP('',(#83));
#182=EDGE_LOOP('',(#84));
#183=EDGE_LOOP('',(#85));
#184=EDGE_LOOP('',(#86));
#185=EDGE_LOOP('',(#87));
#186=FACE_BOUND('',#146,.T.);
#187=FACE_BOUND('',#147,.T.);
#188=FACE_BOUND('',#148,.T.);
#189=FACE_BOUND('',#149,.T.);
#190=FACE_BOUND('',#150,.T.);
#191=FACE_BOUND('',#151,.T.);
#192=FACE_BOUND('',#152,.T.);
#193=FACE_BOUND('',#153,.T.);
#194=FACE_BOUND('',#154,.T.);
#195=FACE_BOUND('',#155,.T.);
#196=FACE_BOUND('',#156,.T.);
#197=FACE_BOUND('',#157,.T.);
#198=FACE_BOUND('',#158,.T.);
#199=FACE_BOUND('',#159,.T.);
#200=FACE_BOUND('',#160,.T.);
#201=FACE_BOUND('',#161,.T.);
#202=FACE_BOUND('',#162,.T.);
#203=FACE_BOUND('',#163,.T.);
#204=FACE_BOUND('',#164,.T.);
#205=FACE_BOUND('',#165,.T.);
#206=FACE_BOUND('',#166,.T.);
#207=FACE_BOUND('',#167,.T.);
#208=FACE_BOUND('',#168,.T.);
#209=FACE_BOUND('',#169,.T.);
#210=FACE_BOUND('',#170,.T.);
#211=FACE_BOUND('',#171,.T.);
#212=FACE_BOUND('',#172,.T.);
#213=FACE_BOUND('',#173,.T.);
#214=FACE_BOUND('',#174,.T.);
#215=FACE_BOUND('',#175,.T.);
#216=FACE_BOUND('',#176,.T.);
#217=FACE_BOUND('',#177,.T.);
#218=FACE_BOUND('',#178,.T.);
#219=FACE_BOUND('',#179,.T.);
#220=FACE_BOUND('',#180,.T.);
#221=FACE_BOUND('',#181,.T.);
#222=FACE_BOUND('',#182,.T.);
#223=FACE_BOUND('',#183,.T.);
#224=FACE_BOUND('',#184,.T.);
#225=FACE_BOUND('',#185,.T.);
#226=CYLINDRICAL_SURFACE('',#281,44.45);
#227=CYLINDRICAL_SURFACE('',#284,41.5);
#228=CYLINDRICAL_SURFACE('',#288,44.45);
#229=CYLINDRICAL_SURFACE('',#290,41.5);
#230=CYLINDRICAL_SURFACE('',#294,41.5);
#231=CYLINDRICAL_SURFACE('',#302,57.);
#232=CYLINDRICAL_SURFACE('',#310,48.5);
#233=CYLINDRICAL_SURFACE('',#314,44.45);
#234=ADVANCED_FACE('',(#186,#187),#226,.T.);
#235=ADVANCED_FACE('',(#188,#189),#227,.F.);
#236=ADVANCED_FACE('',(#190,#191),#41,.F.);
#237=ADVANCED_FACE('',(#192,#193),#228,.T.);
#238=ADVANCED_FACE('',(#194,#195),#229,.F.);
#239=ADVANCED_FACE('',(#196,#197),#42,.F.);
#240=ADVANCED_FACE('',(#198,#199),#230,.F.);
#241=ADVANCED_FACE('',(#200,#201),#21,.F.);
#242=ADVANCED_FACE('',(#202,#203),#22,.T.);
#243=ADVANCED_FACE('',(#204,#205),#231,.T.);
#244=ADVANCED_FACE('',(#206,#207),#18,.T.);
#245=ADVANCED_FACE('',(#208,#209),#23,.T.);
#246=ADVANCED_FACE('',(#210,#211),#19,.F.);
#247=ADVANCED_FACE('',(#212,#213),#232,.T.);
#248=ADVANCED_FACE('',(#214,#215),#24,.T.);
#249=ADVANCED_FACE('',(#216,#217),#233,.F.);
#250=ADVANCED_FACE('',(#218,#219),#20,.F.);
#251=ADVANCED_FACE('',(#220,#221),#43,.T.);
#252=ADVANCED_FACE('',(#222,#223),#44,.T.);
#253=ADVANCED_FACE('',(#224,#225),#45,.T.);
#254=CLOSED_SHELL('',(#234,#235,#236,#237,#238,#239));
#255=CLOSED_SHELL('',(#240,#241,#242,#243,#244,#245,#246,#247,#248,#249,
#250,#251,#252,#253));
#256=STYLED_ITEM('',(#258),#272);
#257=STYLED_ITEM('',(#259),#273);
#258=PRESENTATION_STYLE_ASSIGNMENT((#260));
#259=PRESENTATION_STYLE_ASSIGNMENT((#261));
#260=SURFACE_STYLE_USAGE(.BOTH.,#262);
#261=SURFACE_STYLE_USAGE(.BOTH.,#263);
#262=SURFACE_SIDE_STYLE('',(#264));
#263=SURFACE_SIDE_STYLE('',(#265));
#264=SURFACE_STYLE_FILL_AREA(#266);
#265=SURFACE_STYLE_FILL_AREA(#267);
#266=FILL_AREA_STYLE('',(#268));
#267=FILL_AREA_STYLE('',(#269));
#268=FILL_AREA_STYLE_COLOUR('',#270);
#269=FILL_AREA_STYLE_COLOUR('',#271);
#270=COLOUR_RGB('',0.506983280181885,0.531564235687256,0.550000011920929);
#271=COLOUR_RGB('',0.423529446125031,0.423529446125031,0.470588266849518);
#272=MANIFOLD_SOLID_BREP('',#254);
#273=MANIFOLD_SOLID_BREP('32.210.308',#255);
#274=SHAPE_DEFINITION_REPRESENTATION(#487,#277);
#275=SHAPE_DEFINITION_REPRESENTATION(#486,#278);
#276=SHAPE_DEFINITION_REPRESENTATION(#489,#279);
#277=SHAPE_REPRESENTATION('33.080003.250.308-Rohr',(#280),#478);
#278=SHAPE_REPRESENTATION('33.080003.250.308',(#280,#293,#322,#323),#477);
#279=SHAPE_REPRESENTATION('32.080003.210.308',(#280),#479);
#280=AXIS2_PLACEMENT_3D('',#412,#324,#325);
#281=AXIS2_PLACEMENT_3D('',#413,#326,#327);
#282=AXIS2_PLACEMENT_3D('',#414,#328,#329);
#283=AXIS2_PLACEMENT_3D('',#416,#330,#331);
#284=AXIS2_PLACEMENT_3D('',#418,#332,#333);
#285=AXIS2_PLACEMENT_3D('',#419,#334,#335);
#286=AXIS2_PLACEMENT_3D('',#421,#336,#337);
#287=AXIS2_PLACEMENT_3D('',#423,#338,#339);
#288=AXIS2_PLACEMENT_3D('',#424,#340,#341);
#289=AXIS2_PLACEMENT_3D('',#425,#342,#343);
#290=AXIS2_PLACEMENT_3D('',#427,#344,#345);
#291=AXIS2_PLACEMENT_3D('',#428,#346,#347);
#292=AXIS2_PLACEMENT_3D('',#430,#348,#349);
#293=AXIS2_PLACEMENT_3D('',#431,#350,#351);
#294=AXIS2_PLACEMENT_3D('',#432,#352,#353);
#295=AXIS2_PLACEMENT_3D('',#433,#354,#355);
#296=AXIS2_PLACEMENT_3D('',#435,#356,#357);
#297=AXIS2_PLACEMENT_3D('',#437,#358,#359);
#298=AXIS2_PLACEMENT_3D('',#438,#360,#361);
#299=AXIS2_PLACEMENT_3D('',#440,#362,#363);
#300=AXIS2_PLACEMENT_3D('',#441,#364,#365);
#301=AXIS2_PLACEMENT_3D('',#443,#366,#367);
#302=AXIS2_PLACEMENT_3D('',#445,#368,#369);
#303=AXIS2_PLACEMENT_3D('',#446,#370,#371);
#304=AXIS2_PLACEMENT_3D('',#448,#372,#373);
#305=AXIS2_PLACEMENT_3D('',#449,#374,#375);
#306=AXIS2_PLACEMENT_3D('',#451,#376,#377);
#307=AXIS2_PLACEMENT_3D('',#452,#378,#379);
#308=AXIS2_PLACEMENT_3D('',#454,#380,#381);
#309=AXIS2_PLACEMENT_3D('',#455,#382,#383);
#310=AXIS2_PLACEMENT_3D('',#457,#384,#385);
#311=AXIS2_PLACEMENT_3D('',#458,#386,#387);
#312=AXIS2_PLACEMENT_3D('',#460,#388,#389);
#313=AXIS2_PLACEMENT_3D('',#461,#390,#391);
#314=AXIS2_PLACEMENT_3D('',#463,#392,#393);
#315=AXIS2_PLACEMENT_3D('',#464,#394,#395);
#316=AXIS2_PLACEMENT_3D('',#466,#396,#397);
#317=AXIS2_PLACEMENT_3D('',#468,#398,#399);
#318=AXIS2_PLACEMENT_3D('',#469,#400,#401);
#319=AXIS2_PLACEMENT_3D('',#471,#402,#403);
#320=AXIS2_PLACEMENT_3D('',#472,#404,#405);
#321=AXIS2_PLACEMENT_3D('',#473,#406,#407);
#322=AXIS2_PLACEMENT_3D('',#474,#408,#409);
#323=AXIS2_PLACEMENT_3D('',#475,#410,#411);
#324=DIRECTION('',(0.,0.,1.));
#325=DIRECTION('',(1.,0.,0.));
#326=DIRECTION('',(-1.,0.,0.));
#327=DIRECTION('',(0.,0.,1.));
#328=DIRECTION('',(-1.,0.,0.));
#329=DIRECTION('',(0.,0.,1.));
#330=DIRECTION('',(-0.707106781186547,0.,-0.707106781186548));
#331=DIRECTION('',(-0.707106781186548,0.,0.707106781186547));
#332=DIRECTION('',(-1.,0.,0.));
#333=DIRECTION('',(0.,0.,1.));
#334=DIRECTION('',(-1.,0.,0.));
#335=DIRECTION('',(0.,0.,1.));
#336=DIRECTION('',(-0.707106781186547,0.,-0.707106781186548));
#337=DIRECTION('',(-0.707106781186548,0.,0.707106781186547));
#338=DIRECTION('',(-1.,0.,0.));
#339=DIRECTION('',(0.,0.,1.));
#340=DIRECTION('',(-4.44089209850063E-16,0.,1.));
#341=DIRECTION('',(-1.,0.,-6.66133814775094E-16));
#342=DIRECTION('',(4.44089209850063E-16,0.,-1.));
#343=DIRECTION('',(-1.,0.,-6.66133814775094E-16));
#344=DIRECTION('',(-4.44089209850063E-16,0.,1.));
#345=DIRECTION('',(-1.,0.,-6.66133814775094E-16));
#346=DIRECTION('',(4.44089209850063E-16,0.,-1.));
#347=DIRECTION('',(-1.,0.,-6.66133814775094E-16));
#348=DIRECTION('',(-4.44089209850063E-16,0.,1.));
#349=DIRECTION('',(-1.,0.,-6.66133814775094E-16));
#350=DIRECTION('',(0.,0.,1.));
#351=DIRECTION('',(1.,0.,0.));
#352=DIRECTION('',(1.,0.,0.));
#353=DIRECTION('',(0.,1.,0.));
#354=DIRECTION('',(1.,0.,0.));
#355=DIRECTION('',(0.,1.,0.));
#356=DIRECTION('',(1.,0.,0.));
#357=DIRECTION('',(0.,1.,0.));
#358=DIRECTION('',(1.,0.,0.));
#359=DIRECTION('',(0.,1.,0.));
#360=DIRECTION('',(1.,0.,0.));
#361=DIRECTION('',(0.,1.,0.));
#362=DIRECTION('',(-1.,0.,0.));
#363=DIRECTION('',(0.,1.,0.));
#364=DIRECTION('',(1.,0.,0.));
#365=DIRECTION('',(0.,1.,0.));
#366=DIRECTION('',(1.,0.,0.));
#367=DIRECTION('',(0.,1.,0.));
#368=DIRECTION('',(1.,0.,0.));
#369=DIRECTION('',(0.,1.,0.));
#370=DIRECTION('',(1.,0.,0.));
#371=DIRECTION('',(0.,1.,0.));
#372=DIRECTION('',(1.,0.,0.));
#373=DIRECTION('',(0.,0.,-1.));
#374=DIRECTION('',(1.,0.,0.));
#375=DIRECTION('',(0.,1.,0.));
#376=DIRECTION('',(1.,0.,0.));
#377=DIRECTION('',(0.,1.,0.));
#378=DIRECTION('',(1.,0.,0.));
#379=DIRECTION('',(0.,1.,0.));
#380=DIRECTION('',(1.,-4.29386999004162E-17,4.29386999004162E-17));
#381=DIRECTION('',(4.29386999004162E-17,1.,0.));
#382=DIRECTION('',(1.,0.,0.));
#383=DIRECTION('',(0.,1.,0.));
#384=DIRECTION('',(1.,0.,0.));
#385=DIRECTION('',(0.,1.,0.));
#386=DIRECTION('',(1.,0.,0.));
#387=DIRECTION('',(0.,1.,0.));
#388=DIRECTION('',(1.,0.,0.));
#389=DIRECTION('',(0.,1.,0.));
#390=DIRECTION('',(1.,0.,0.));
#391=DIRECTION('',(0.,1.,0.));
#392=DIRECTION('',(1.,0.,0.));
#393=DIRECTION('',(0.,1.,0.));
#394=DIRECTION('',(1.,0.,0.));
#395=DIRECTION('',(0.,1.,0.));
#396=DIRECTION('',(1.,0.,0.));
#397=DIRECTION('',(0.,1.,0.));
#398=DIRECTION('',(1.,-1.75618799592703E-16,1.75618799592703E-16));
#399=DIRECTION('',(1.75618799592703E-16,1.,0.));
#400=DIRECTION('',(1.,0.,0.));
#401=DIRECTION('',(0.,1.,0.));
#402=DIRECTION('',(-1.,0.,0.));
#403=DIRECTION('',(0.,0.,1.));
#404=DIRECTION('',(-1.,0.,0.));
#405=DIRECTION('',(0.,0.,1.));
#406=DIRECTION('',(1.,0.,0.));
#407=DIRECTION('',(0.,1.,0.));
#408=DIRECTION('',(1.38777878078145E-17,7.70371977754896E-34,1.));
#409=DIRECTION('',(1.,-5.55111512312578E-17,-1.38777878078145E-17));
#410=DIRECTION('',(1.,-1.11022302462516E-16,5.66553889764798E-16));
#411=DIRECTION('',(5.66553889764798E-16,4.93038065763132E-32,-1.));
#412=CARTESIAN_POINT('',(0.,0.,0.));
#413=CARTESIAN_POINT('',(0.,0.,0.));
#414=CARTESIAN_POINT('',(83.,0.,0.));
#415=CARTESIAN_POINT('',(83.,0.,44.45));
#416=CARTESIAN_POINT('',(1.96261557335472E-14,0.,0.));
#417=CARTESIAN_POINT('',(-44.45,0.,44.45));
#418=CARTESIAN_POINT('',(0.,0.,0.));
#419=CARTESIAN_POINT('',(83.,0.,0.));
#420=CARTESIAN_POINT('',(83.,0.,41.5));
#421=CARTESIAN_POINT('',(1.96261557335472E-14,0.,0.));
#422=CARTESIAN_POINT('',(-41.5,0.,41.5));
#423=CARTESIAN_POINT('',(83.,0.,41.5));
#424=CARTESIAN_POINT('',(0.,0.,0.));
#425=CARTESIAN_POINT('',(3.68594044175552E-14,0.,-83.));
#426=CARTESIAN_POINT('',(-44.45,0.,-83.));
#427=CARTESIAN_POINT('',(0.,0.,0.));
#428=CARTESIAN_POINT('',(3.68594044175552E-14,0.,-83.));
#429=CARTESIAN_POINT('',(-41.5,0.,-83.));
#430=CARTESIAN_POINT('',(-41.5,0.,-83.));
#431=CARTESIAN_POINT('',(0.,0.,0.));
#432=CARTESIAN_POINT('',(2.25,0.,0.));
#433=CARTESIAN_POINT('',(-5.,0.,0.));
#434=CARTESIAN_POINT('',(-5.,41.5,0.));
#435=CARTESIAN_POINT('',(9.5,0.,0.));
#436=CARTESIAN_POINT('',(9.5,41.5,0.));
#437=CARTESIAN_POINT('',(9.75,0.,0.));
#438=CARTESIAN_POINT('',(10.,0.,0.));
#439=CARTESIAN_POINT('',(10.,42.,0.));
#440=CARTESIAN_POINT('',(9.75,0.,0.));
#441=CARTESIAN_POINT('',(9.5,0.,0.));
#442=CARTESIAN_POINT('',(9.5,57.,0.));
#443=CARTESIAN_POINT('',(10.,0.,0.));
#444=CARTESIAN_POINT('',(10.,56.5,0.));
#445=CARTESIAN_POINT('',(6.47020753820971,0.,0.));
#446=CARTESIAN_POINT('',(3.44041507641942,0.,0.));
#447=CARTESIAN_POINT('',(3.44041507641942,57.,0.));
#448=CARTESIAN_POINT('',(3.44041507641943,0.,0.));
#449=CARTESIAN_POINT('',(1.5610298348476,0.,0.));
#450=CARTESIAN_POINT('',(1.5610298348476,55.6840402866513,0.));
#451=CARTESIAN_POINT('',(0.373383963080539,0.,0.));
#452=CARTESIAN_POINT('',(-0.814261908686523,0.,0.));
#453=CARTESIAN_POINT('',(-0.814261908686523,49.1579798566743,0.));
#454=CARTESIAN_POINT('',(-1.75395452947247,1.04460724510562E-13,-4.85722573273506E-14));
#455=CARTESIAN_POINT('',(-1.75395452947243,0.,0.));
#456=CARTESIAN_POINT('',(-1.75395452947243,48.5,0.));
#457=CARTESIAN_POINT('',(-5.37697726473622,0.,0.));
#458=CARTESIAN_POINT('',(-9.,0.,0.));
#459=CARTESIAN_POINT('',(-9.,48.5,0.));
#460=CARTESIAN_POINT('',(-9.5,0.,0.));
#461=CARTESIAN_POINT('',(-10.,0.,0.));
#462=CARTESIAN_POINT('',(-10.,47.5,0.));
#463=CARTESIAN_POINT('',(-7.7,0.,0.));
#464=CARTESIAN_POINT('',(-10.,0.,0.));
#465=CARTESIAN_POINT('',(-10.,44.45,0.));
#466=CARTESIAN_POINT('',(-5.4,0.,0.));
#467=CARTESIAN_POINT('',(-5.4,44.45,0.));
#468=CARTESIAN_POINT('',(-5.39999999999995,1.46255472597681E-14,-2.77555756156289E-14));
#469=CARTESIAN_POINT('',(-5.,0.,0.));
#470=CARTESIAN_POINT('',(-5.,44.05,0.));
#471=CARTESIAN_POINT('',(-5.,42.775,0.));
#472=CARTESIAN_POINT('',(-10.,45.975,0.));
#473=CARTESIAN_POINT('',(10.,49.25,0.));
#474=CARTESIAN_POINT('',(88.,-3.58046925441614E-16,-8.95117313604026E-17));
#475=CARTESIAN_POINT('',(3.98697476522556E-14,0.,-88.));
#476=MECHANICAL_DESIGN_GEOMETRIC_PRESENTATION_REPRESENTATION('',(#256,#257),
#477);
#477=(
GEOMETRIC_REPRESENTATION_CONTEXT(3)
GLOBAL_UNCERTAINTY_ASSIGNED_CONTEXT((#480))
GLOBAL_UNIT_ASSIGNED_CONTEXT((#485,#484,#483))
REPRESENTATION_CONTEXT('33.080003.250.308','TOP_LEVEL_ASSEMBLY_PART')
);
#478=(
GEOMETRIC_REPRESENTATION_CONTEXT(3)
GLOBAL_UNCERTAINTY_ASSIGNED_CONTEXT((#481))
GLOBAL_UNIT_ASSIGNED_CONTEXT((#485,#484,#483))
REPRESENTATION_CONTEXT('33.080003.250.308-Rohr','COMPONENT_PART')
);
#479=(
GEOMETRIC_REPRESENTATION_CONTEXT(3)
GLOBAL_UNCERTAINTY_ASSIGNED_CONTEXT((#482))
GLOBAL_UNIT_ASSIGNED_CONTEXT((#485,#484,#483))
REPRESENTATION_CONTEXT('32.080003.210.308','COMPONENT_PART')
);
#480=UNCERTAINTY_MEASURE_WITH_UNIT(LENGTH_MEASURE(0.005),#485,
'DISTANCE_ACCURACY_VALUE','Maximum Tolerance applied to model');
#481=UNCERTAINTY_MEASURE_WITH_UNIT(LENGTH_MEASURE(0.005),#485,
'DISTANCE_ACCURACY_VALUE','Maximum Tolerance applied to model');
#482=UNCERTAINTY_MEASURE_WITH_UNIT(LENGTH_MEASURE(0.005),#485,
'DISTANCE_ACCURACY_VALUE','Maximum Tolerance applied to model');
#483=(
NAMED_UNIT(*)
SI_UNIT($,.STERADIAN.)
SOLID_ANGLE_UNIT()
);
#484=(
NAMED_UNIT(*)
PLANE_ANGLE_UNIT()
SI_UNIT($,.RADIAN.)
);
#485=(
LENGTH_UNIT()
NAMED_UNIT(*)
SI_UNIT(.MILLI.,.METRE.)
);
#486=PRODUCT_DEFINITION_SHAPE('','',#492);
#487=PRODUCT_DEFINITION_SHAPE('','',#493);
#488=PRODUCT_DEFINITION_SHAPE(' ','NAUO PRDDFN',#28);
#489=PRODUCT_DEFINITION_SHAPE('','',#494);
#490=PRODUCT_DEFINITION_SHAPE(' ','NAUO PRDDFN',#29);
#491=PRODUCT_DEFINITION_SHAPE(' ','NAUO PRDDFN',#30);
#492=PRODUCT_DEFINITION('','',#498,#495);
#493=PRODUCT_DEFINITION('','',#499,#496);
#494=PRODUCT_DEFINITION('','',#500,#497);
#495=PRODUCT_DEFINITION_CONTEXT('',#514,'design');
#496=PRODUCT_DEFINITION_CONTEXT('',#514,'design');
#497=PRODUCT_DEFINITION_CONTEXT('',#514,'design');
#498=PRODUCT_DEFINITION_FORMATION_WITH_SPECIFIED_SOURCE('','',#504,
 .NOT_KNOWN.);
#499=PRODUCT_DEFINITION_FORMATION_WITH_SPECIFIED_SOURCE('','',#505,
 .NOT_KNOWN.);
#500=PRODUCT_DEFINITION_FORMATION_WITH_SPECIFIED_SOURCE('','',#506,
 .NOT_KNOWN.);
#501=PRODUCT_RELATED_PRODUCT_CATEGORY('','',(#504));
#502=PRODUCT_RELATED_PRODUCT_CATEGORY('','',(#505));
#503=PRODUCT_RELATED_PRODUCT_CATEGORY('','',(#506));
#504=PRODUCT('33.080003.250.308','33.080003.250.308',
'33.080003.250.308',(#510));
#505=PRODUCT('33.080003.250.308-Rohr','33.080003.250.308-Rohr',
'33.080003.250.308-Rohr',(#511));
#506=PRODUCT('32.080003.210.308','32.080003.210.308',
'32.080003.210.308',(#512));
#507=PRODUCT_CATEGORY('','');
#508=PRODUCT_CATEGORY('','');
#509=PRODUCT_CATEGORY('','');
#510=PRODUCT_CONTEXT('',#514,'mechanical');
#511=PRODUCT_CONTEXT('',#514,'mechanical');
#512=PRODUCT_CONTEXT('',#514,'mechanical');
#513=APPLICATION_PROTOCOL_DEFINITION('international standard',
'automotive_design',2010,#514);
#514=APPLICATION_CONTEXT(
'core data for automotive mechanical design processes');
ENDSEC;
END-ISO-10303-21;
