ISO-10303-21;
HEADER;
/* Generated by software containing ST-Developer
 * from STEP Tools, Inc. (www.steptools.com) 
 */
/* OPTION: strings as raw bytes, not using required /X/ escapes */

FILE_DESCRIPTION(
/* description */ (''),
/* implementation_level */ '2;1');

FILE_NAME(
/* name */ '33.100003.244.310',
/* time_stamp */ '2019-06-19T08:19:27+02:00',
/* author */ ('Murat Coskun Bicak'),
/* organization */ ('Evac AG'),
/* preprocessor_version */ 'ST-DEVELOPER v16.7',
/* originating_system */ 'DEX',
/* authorisation */ $);

FILE_SCHEMA (('AUTOMOTIVE_DESIGN {1 0 10303 214 3 1 1}'));
ENDSEC;

DATA;
#10=PROPERTY_DEFINITION_REPRESENTATION(#14,#12);
#11=PROPERTY_DEFINITION_REPRESENTATION(#15,#13);
#12=REPRESENTATION('',(#16),#437);
#13=REPRESENTATION('',(#17),#437);
#14=PROPERTY_DEFINITION('pmi validation property','',#446);
#15=PROPERTY_DEFINITION('pmi validation property','',#446);
#16=VALUE_REPRESENTATION_ITEM('number of annotations',COUNT_MEASURE(0.));
#17=VALUE_REPRESENTATION_ITEM('number of views',COUNT_MEASURE(0.));
#18=CONICAL_SURFACE('',#280,58.,0.785398163397448);
#19=CONICAL_SURFACE('',#286,62.4210100716628,1.22173047639603);
#20=CONICAL_SURFACE('',#292,66.75,0.785398163397448);
#21=CONICAL_SURFACE('',#293,51.25,0.785398163397445);
#22=TOROIDAL_SURFACE('',#277,53.6,0.399999999999997);
#23=TOROIDAL_SURFACE('',#284,59.5,1.);
#24=TOROIDAL_SURFACE('',#288,65.,2.00000000000001);
#25=CONTEXT_DEPENDENT_SHAPE_REPRESENTATION(#31,#448);
#26=CONTEXT_DEPENDENT_SHAPE_REPRESENTATION(#32,#450);
#27=CONTEXT_DEPENDENT_SHAPE_REPRESENTATION(#33,#451);
#28=NEXT_ASSEMBLY_USAGE_OCCURRENCE('33.100003.244.310-Rohr',
'33.100003.244.310-Rohr','33.100003.244.310-Rohr',#452,#453,'');
#29=NEXT_ASSEMBLY_USAGE_OCCURRENCE('32.100003.210.310',
'32.100003.210.310','32.100003.210.310',#452,#454,'');
#30=NEXT_ASSEMBLY_USAGE_OCCURRENCE('32.100003.210.310',
'32.100003.210.310','32.100003.210.310',#452,#454,'');
#31=(
REPRESENTATION_RELATIONSHIP(' ',' ',#255,#256)
REPRESENTATION_RELATIONSHIP_WITH_TRANSFORMATION(#34)
SHAPE_REPRESENTATION_RELATIONSHIP()
);
#32=(
REPRESENTATION_RELATIONSHIP(' ',' ',#257,#256)
REPRESENTATION_RELATIONSHIP_WITH_TRANSFORMATION(#35)
SHAPE_REPRESENTATION_RELATIONSHIP()
);
#33=(
REPRESENTATION_RELATIONSHIP(' ',' ',#257,#256)
REPRESENTATION_RELATIONSHIP_WITH_TRANSFORMATION(#36)
SHAPE_REPRESENTATION_RELATIONSHIP()
);
#34=ITEM_DEFINED_TRANSFORMATION(' ',' ',#258,#267);
#35=ITEM_DEFINED_TRANSFORMATION(' ',' ',#258,#296);
#36=ITEM_DEFINED_TRANSFORMATION(' ',' ',#258,#297);
#37=SHAPE_REPRESENTATION_RELATIONSHIP('','',#255,#39);
#38=SHAPE_REPRESENTATION_RELATIONSHIP('','',#257,#40);
#39=ADVANCED_BREP_SHAPE_REPRESENTATION('',(#250),#438);
#40=ADVANCED_BREP_SHAPE_REPRESENTATION('',(#251),#439);
#41=CYLINDRICAL_SURFACE('',#262,54.);
#42=CYLINDRICAL_SURFACE('',#266,51.);
#43=CYLINDRICAL_SURFACE('',#279,54.);
#44=CYLINDRICAL_SURFACE('',#282,58.5);
#45=CYLINDRICAL_SURFACE('',#290,67.);
#46=CYLINDRICAL_SURFACE('',#295,51.);
#47=ORIENTED_EDGE('',*,*,#83,.T.);
#48=ORIENTED_EDGE('',*,*,#84,.F.);
#49=ORIENTED_EDGE('',*,*,#85,.T.);
#50=ORIENTED_EDGE('',*,*,#83,.F.);
#51=ORIENTED_EDGE('',*,*,#86,.T.);
#52=ORIENTED_EDGE('',*,*,#85,.F.);
#53=ORIENTED_EDGE('',*,*,#84,.T.);
#54=ORIENTED_EDGE('',*,*,#86,.F.);
#55=ORIENTED_EDGE('',*,*,#87,.F.);
#56=ORIENTED_EDGE('',*,*,#88,.T.);
#57=ORIENTED_EDGE('',*,*,#89,.T.);
#58=ORIENTED_EDGE('',*,*,#90,.F.);
#59=ORIENTED_EDGE('',*,*,#91,.T.);
#60=ORIENTED_EDGE('',*,*,#92,.F.);
#61=ORIENTED_EDGE('',*,*,#93,.F.);
#62=ORIENTED_EDGE('',*,*,#92,.T.);
#63=ORIENTED_EDGE('',*,*,#93,.T.);
#64=ORIENTED_EDGE('',*,*,#89,.F.);
#65=ORIENTED_EDGE('',*,*,#94,.F.);
#66=ORIENTED_EDGE('',*,*,#90,.T.);
#67=ORIENTED_EDGE('',*,*,#95,.F.);
#68=ORIENTED_EDGE('',*,*,#94,.T.);
#69=ORIENTED_EDGE('',*,*,#96,.F.);
#70=ORIENTED_EDGE('',*,*,#95,.T.);
#71=ORIENTED_EDGE('',*,*,#97,.F.);
#72=ORIENTED_EDGE('',*,*,#96,.T.);
#73=ORIENTED_EDGE('',*,*,#98,.F.);
#74=ORIENTED_EDGE('',*,*,#97,.T.);
#75=ORIENTED_EDGE('',*,*,#99,.F.);
#76=ORIENTED_EDGE('',*,*,#98,.T.);
#77=ORIENTED_EDGE('',*,*,#88,.F.);
#78=ORIENTED_EDGE('',*,*,#99,.T.);
#79=ORIENTED_EDGE('',*,*,#87,.T.);
#80=ORIENTED_EDGE('',*,*,#100,.F.);
#81=ORIENTED_EDGE('',*,*,#100,.T.);
#82=ORIENTED_EDGE('',*,*,#91,.F.);
#83=EDGE_CURVE('',#101,#101,#119,.T.);
#84=EDGE_CURVE('',#102,#102,#120,.T.);
#85=EDGE_CURVE('',#103,#103,#121,.T.);
#86=EDGE_CURVE('',#104,#104,#122,.T.);
#87=EDGE_CURVE('',#105,#105,#123,.T.);
#88=EDGE_CURVE('',#106,#106,#124,.T.);
#89=EDGE_CURVE('',#107,#107,#125,.T.);
#90=EDGE_CURVE('',#108,#108,#126,.T.);
#91=EDGE_CURVE('',#109,#109,#127,.T.);
#92=EDGE_CURVE('',#110,#110,#128,.T.);
#93=EDGE_CURVE('',#111,#111,#129,.T.);
#94=EDGE_CURVE('',#112,#112,#130,.T.);
#95=EDGE_CURVE('',#113,#113,#131,.T.);
#96=EDGE_CURVE('',#114,#114,#132,.T.);
#97=EDGE_CURVE('',#115,#115,#133,.T.);
#98=EDGE_CURVE('',#116,#116,#134,.T.);
#99=EDGE_CURVE('',#117,#117,#135,.T.);
#100=EDGE_CURVE('',#118,#118,#136,.T.);
#101=VERTEX_POINT('',#381);
#102=VERTEX_POINT('',#383);
#103=VERTEX_POINT('',#386);
#104=VERTEX_POINT('',#389);
#105=VERTEX_POINT('',#394);
#106=VERTEX_POINT('',#396);
#107=VERTEX_POINT('',#399);
#108=VERTEX_POINT('',#401);
#109=VERTEX_POINT('',#404);
#110=VERTEX_POINT('',#406);
#111=VERTEX_POINT('',#409);
#112=VERTEX_POINT('',#413);
#113=VERTEX_POINT('',#416);
#114=VERTEX_POINT('',#419);
#115=VERTEX_POINT('',#422);
#116=VERTEX_POINT('',#425);
#117=VERTEX_POINT('',#428);
#118=VERTEX_POINT('',#432);
#119=CIRCLE('',#260,54.);
#120=CIRCLE('',#261,51.);
#121=CIRCLE('',#263,54.);
#122=CIRCLE('',#265,51.);
#123=CIRCLE('',#269,51.5);
#124=CIRCLE('',#270,66.5);
#125=CIRCLE('',#272,54.);
#126=CIRCLE('',#273,57.5);
#127=CIRCLE('',#275,51.);
#128=CIRCLE('',#276,53.6);
#129=CIRCLE('',#278,54.);
#130=CIRCLE('',#281,58.5);
#131=CIRCLE('',#283,58.5);
#132=CIRCLE('',#285,59.1579798566743);
#133=CIRCLE('',#287,65.6840402866513);
#134=CIRCLE('',#289,67.);
#135=CIRCLE('',#291,67.);
#136=CIRCLE('',#294,51.);
#137=EDGE_LOOP('',(#47));
#138=EDGE_LOOP('',(#48));
#139=EDGE_LOOP('',(#49));
#140=EDGE_LOOP('',(#50));
#141=EDGE_LOOP('',(#51));
#142=EDGE_LOOP('',(#52));
#143=EDGE_LOOP('',(#53));
#144=EDGE_LOOP('',(#54));
#145=EDGE_LOOP('',(#55));
#146=EDGE_LOOP('',(#56));
#147=EDGE_LOOP('',(#57));
#148=EDGE_LOOP('',(#58));
#149=EDGE_LOOP('',(#59));
#150=EDGE_LOOP('',(#60));
#151=EDGE_LOOP('',(#61));
#152=EDGE_LOOP('',(#62));
#153=EDGE_LOOP('',(#63));
#154=EDGE_LOOP('',(#64));
#155=EDGE_LOOP('',(#65));
#156=EDGE_LOOP('',(#66));
#157=EDGE_LOOP('',(#67));
#158=EDGE_LOOP('',(#68));
#159=EDGE_LOOP('',(#69));
#160=EDGE_LOOP('',(#70));
#161=EDGE_LOOP('',(#71));
#162=EDGE_LOOP('',(#72));
#163=EDGE_LOOP('',(#73));
#164=EDGE_LOOP('',(#74));
#165=EDGE_LOOP('',(#75));
#166=EDGE_LOOP('',(#76));
#167=EDGE_LOOP('',(#77));
#168=EDGE_LOOP('',(#78));
#169=EDGE_LOOP('',(#79));
#170=EDGE_LOOP('',(#80));
#171=EDGE_LOOP('',(#81));
#172=EDGE_LOOP('',(#82));
#173=FACE_BOUND('',#137,.T.);
#174=FACE_BOUND('',#138,.T.);
#175=FACE_BOUND('',#139,.T.);
#176=FACE_BOUND('',#140,.T.);
#177=FACE_BOUND('',#141,.T.);
#178=FACE_BOUND('',#142,.T.);
#179=FACE_BOUND('',#143,.T.);
#180=FACE_BOUND('',#144,.T.);
#181=FACE_BOUND('',#145,.T.);
#182=FACE_BOUND('',#146,.T.);
#183=FACE_BOUND('',#147,.T.);
#184=FACE_BOUND('',#148,.T.);
#185=FACE_BOUND('',#149,.T.);
#186=FACE_BOUND('',#150,.T.);
#187=FACE_BOUND('',#151,.T.);
#188=FACE_BOUND('',#152,.T.);
#189=FACE_BOUND('',#153,.T.);
#190=FACE_BOUND('',#154,.T.);
#191=FACE_BOUND('',#155,.T.);
#192=FACE_BOUND('',#156,.T.);
#193=FACE_BOUND('',#157,.T.);
#194=FACE_BOUND('',#158,.T.);
#195=FACE_BOUND('',#159,.T.);
#196=FACE_BOUND('',#160,.T.);
#197=FACE_BOUND('',#161,.T.);
#198=FACE_BOUND('',#162,.T.);
#199=FACE_BOUND('',#163,.T.);
#200=FACE_BOUND('',#164,.T.);
#201=FACE_BOUND('',#165,.T.);
#202=FACE_BOUND('',#166,.T.);
#203=FACE_BOUND('',#167,.T.);
#204=FACE_BOUND('',#168,.T.);
#205=FACE_BOUND('',#169,.T.);
#206=FACE_BOUND('',#170,.T.);
#207=FACE_BOUND('',#171,.T.);
#208=FACE_BOUND('',#172,.T.);
#209=PLANE('',#259);
#210=PLANE('',#264);
#211=PLANE('',#268);
#212=PLANE('',#271);
#213=PLANE('',#274);
#214=ADVANCED_FACE('',(#173,#174),#209,.T.);
#215=ADVANCED_FACE('',(#175,#176),#41,.T.);
#216=ADVANCED_FACE('',(#177,#178),#210,.T.);
#217=ADVANCED_FACE('',(#179,#180),#42,.F.);
#218=ADVANCED_FACE('',(#181,#182),#211,.T.);
#219=ADVANCED_FACE('',(#183,#184),#212,.T.);
#220=ADVANCED_FACE('',(#185,#186),#213,.T.);
#221=ADVANCED_FACE('',(#187,#188),#22,.F.);
#222=ADVANCED_FACE('',(#189,#190),#43,.F.);
#223=ADVANCED_FACE('',(#191,#192),#18,.T.);
#224=ADVANCED_FACE('',(#193,#194),#44,.T.);
#225=ADVANCED_FACE('',(#195,#196),#23,.F.);
#226=ADVANCED_FACE('',(#197,#198),#19,.T.);
#227=ADVANCED_FACE('',(#199,#200),#24,.T.);
#228=ADVANCED_FACE('',(#201,#202),#45,.T.);
#229=ADVANCED_FACE('',(#203,#204),#20,.T.);
#230=ADVANCED_FACE('',(#205,#206),#21,.F.);
#231=ADVANCED_FACE('',(#207,#208),#46,.F.);
#232=CLOSED_SHELL('',(#214,#215,#216,#217));
#233=CLOSED_SHELL('',(#218,#219,#220,#221,#222,#223,#224,#225,#226,#227,
#228,#229,#230,#231));
#234=STYLED_ITEM('',(#236),#250);
#235=STYLED_ITEM('',(#237),#251);
#236=PRESENTATION_STYLE_ASSIGNMENT((#238));
#237=PRESENTATION_STYLE_ASSIGNMENT((#239));
#238=SURFACE_STYLE_USAGE(.BOTH.,#240);
#239=SURFACE_STYLE_USAGE(.BOTH.,#241);
#240=SURFACE_SIDE_STYLE('',(#242));
#241=SURFACE_SIDE_STYLE('',(#243));
#242=SURFACE_STYLE_FILL_AREA(#244);
#243=SURFACE_STYLE_FILL_AREA(#245);
#244=FILL_AREA_STYLE('',(#246));
#245=FILL_AREA_STYLE('',(#247));
#246=FILL_AREA_STYLE_COLOUR('',#248);
#247=FILL_AREA_STYLE_COLOUR('',#249);
#248=COLOUR_RGB('',0.506983280181885,0.531564235687256,0.550000011920929);
#249=COLOUR_RGB('',0.423529446125031,0.423529446125031,0.470588266849518);
#250=MANIFOLD_SOLID_BREP('',#232);
#251=MANIFOLD_SOLID_BREP('',#233);
#252=SHAPE_DEFINITION_REPRESENTATION(#447,#255);
#253=SHAPE_DEFINITION_REPRESENTATION(#446,#256);
#254=SHAPE_DEFINITION_REPRESENTATION(#449,#257);
#255=SHAPE_REPRESENTATION('33.100003.244.310-Rohr',(#258),#438);
#256=SHAPE_REPRESENTATION('33.100003.244.310',(#258,#267,#296,#297),#437);
#257=SHAPE_REPRESENTATION('32.100003.210.310',(#258),#439);
#258=AXIS2_PLACEMENT_3D('',#378,#298,#299);
#259=AXIS2_PLACEMENT_3D('',#379,#300,#301);
#260=AXIS2_PLACEMENT_3D('',#380,#302,#303);
#261=AXIS2_PLACEMENT_3D('',#382,#304,#305);
#262=AXIS2_PLACEMENT_3D('',#384,#306,#307);
#263=AXIS2_PLACEMENT_3D('',#385,#308,#309);
#264=AXIS2_PLACEMENT_3D('',#387,#310,#311);
#265=AXIS2_PLACEMENT_3D('',#388,#312,#313);
#266=AXIS2_PLACEMENT_3D('',#390,#314,#315);
#267=AXIS2_PLACEMENT_3D('',#391,#316,#317);
#268=AXIS2_PLACEMENT_3D('',#392,#318,#319);
#269=AXIS2_PLACEMENT_3D('',#393,#320,#321);
#270=AXIS2_PLACEMENT_3D('',#395,#322,#323);
#271=AXIS2_PLACEMENT_3D('',#397,#324,#325);
#272=AXIS2_PLACEMENT_3D('',#398,#326,#327);
#273=AXIS2_PLACEMENT_3D('',#400,#328,#329);
#274=AXIS2_PLACEMENT_3D('',#402,#330,#331);
#275=AXIS2_PLACEMENT_3D('',#403,#332,#333);
#276=AXIS2_PLACEMENT_3D('',#405,#334,#335);
#277=AXIS2_PLACEMENT_3D('',#407,#336,#337);
#278=AXIS2_PLACEMENT_3D('',#408,#338,#339);
#279=AXIS2_PLACEMENT_3D('',#410,#340,#341);
#280=AXIS2_PLACEMENT_3D('',#411,#342,#343);
#281=AXIS2_PLACEMENT_3D('',#412,#344,#345);
#282=AXIS2_PLACEMENT_3D('',#414,#346,#347);
#283=AXIS2_PLACEMENT_3D('',#415,#348,#349);
#284=AXIS2_PLACEMENT_3D('',#417,#350,#351);
#285=AXIS2_PLACEMENT_3D('',#418,#352,#353);
#286=AXIS2_PLACEMENT_3D('',#420,#354,#355);
#287=AXIS2_PLACEMENT_3D('',#421,#356,#357);
#288=AXIS2_PLACEMENT_3D('',#423,#358,#359);
#289=AXIS2_PLACEMENT_3D('',#424,#360,#361);
#290=AXIS2_PLACEMENT_3D('',#426,#362,#363);
#291=AXIS2_PLACEMENT_3D('',#427,#364,#365);
#292=AXIS2_PLACEMENT_3D('',#429,#366,#367);
#293=AXIS2_PLACEMENT_3D('',#430,#368,#369);
#294=AXIS2_PLACEMENT_3D('',#431,#370,#371);
#295=AXIS2_PLACEMENT_3D('',#433,#372,#373);
#296=AXIS2_PLACEMENT_3D('',#434,#374,#375);
#297=AXIS2_PLACEMENT_3D('',#435,#376,#377);
#298=DIRECTION('',(0.,0.,1.));
#299=DIRECTION('',(1.,0.,0.));
#300=DIRECTION('',(-1.,0.,0.));
#301=DIRECTION('',(0.,0.,1.));
#302=DIRECTION('',(-1.,0.,0.));
#303=DIRECTION('',(0.,0.,1.));
#304=DIRECTION('',(-1.,0.,0.));
#305=DIRECTION('',(0.,0.,1.));
#306=DIRECTION('',(-1.,0.,0.));
#307=DIRECTION('',(0.,0.,1.));
#308=DIRECTION('',(-1.,0.,0.));
#309=DIRECTION('',(0.,0.,1.));
#310=DIRECTION('',(1.,0.,0.));
#311=DIRECTION('',(0.,0.,-1.));
#312=DIRECTION('',(-1.,0.,0.));
#313=DIRECTION('',(0.,0.,1.));
#314=DIRECTION('',(-1.,0.,0.));
#315=DIRECTION('',(0.,0.,1.));
#316=DIRECTION('',(0.,0.,1.));
#317=DIRECTION('',(1.,0.,0.));
#318=DIRECTION('',(1.,0.,0.));
#319=DIRECTION('',(0.,0.,-1.));
#320=DIRECTION('',(1.,0.,0.));
#321=DIRECTION('',(0.,1.,0.));
#322=DIRECTION('',(1.,0.,0.));
#323=DIRECTION('',(0.,1.,0.));
#324=DIRECTION('',(-1.,0.,0.));
#325=DIRECTION('',(0.,0.,1.));
#326=DIRECTION('',(1.,0.,0.));
#327=DIRECTION('',(0.,1.,0.));
#328=DIRECTION('',(1.,0.,0.));
#329=DIRECTION('',(0.,1.,0.));
#330=DIRECTION('',(-1.,0.,0.));
#331=DIRECTION('',(0.,0.,1.));
#332=DIRECTION('',(1.,0.,0.));
#333=DIRECTION('',(0.,1.,0.));
#334=DIRECTION('',(1.,0.,0.));
#335=DIRECTION('',(0.,1.,0.));
#336=DIRECTION('',(1.,0.,0.));
#337=DIRECTION('',(0.,0.,-1.));
#338=DIRECTION('',(1.,0.,0.));
#339=DIRECTION('',(0.,1.,0.));
#340=DIRECTION('',(1.,0.,0.));
#341=DIRECTION('',(0.,1.,0.));
#342=DIRECTION('',(1.,0.,0.));
#343=DIRECTION('',(0.,1.,0.));
#344=DIRECTION('',(1.,0.,0.));
#345=DIRECTION('',(0.,1.,0.));
#346=DIRECTION('',(1.,0.,0.));
#347=DIRECTION('',(0.,1.,0.));
#348=DIRECTION('',(1.,0.,0.));
#349=DIRECTION('',(0.,1.,0.));
#350=DIRECTION('',(1.,0.,0.));
#351=DIRECTION('',(0.,0.,-1.));
#352=DIRECTION('',(1.,0.,0.));
#353=DIRECTION('',(0.,1.,0.));
#354=DIRECTION('',(1.,0.,0.));
#355=DIRECTION('',(0.,1.,0.));
#356=DIRECTION('',(1.,0.,0.));
#357=DIRECTION('',(0.,1.,0.));
#358=DIRECTION('',(1.,0.,0.));
#359=DIRECTION('',(0.,0.,-1.));
#360=DIRECTION('',(1.,0.,0.));
#361=DIRECTION('',(0.,1.,0.));
#362=DIRECTION('',(1.,0.,0.));
#363=DIRECTION('',(0.,1.,0.));
#364=DIRECTION('',(1.,0.,0.));
#365=DIRECTION('',(0.,1.,0.));
#366=DIRECTION('',(-1.,0.,0.));
#367=DIRECTION('',(0.,1.,0.));
#368=DIRECTION('',(1.,0.,0.));
#369=DIRECTION('',(0.,1.,0.));
#370=DIRECTION('',(1.,0.,0.));
#371=DIRECTION('',(0.,1.,0.));
#372=DIRECTION('',(1.,0.,0.));
#373=DIRECTION('',(0.,1.,0.));
#374=DIRECTION('',(-8.32667268468868E-17,5.55111512312578E-17,1.));
#375=DIRECTION('',(1.,-5.55111512312578E-17,8.32667268468868E-17));
#376=DIRECTION('',(-2.64961190964553E-17,0.924224592736303,0.381849318686593));
#377=DIRECTION('',(-1.,-4.93038065763132E-32,-6.93889390390723E-17));
#378=CARTESIAN_POINT('',(0.,0.,0.));
#379=CARTESIAN_POINT('',(-93.,0.,51.));
#380=CARTESIAN_POINT('',(-93.,0.,0.));
#381=CARTESIAN_POINT('',(-93.,0.,54.));
#382=CARTESIAN_POINT('',(-93.,0.,0.));
#383=CARTESIAN_POINT('',(-93.,0.,51.));
#384=CARTESIAN_POINT('',(0.,0.,0.));
#385=CARTESIAN_POINT('',(93.,0.,0.));
#386=CARTESIAN_POINT('',(93.,0.,54.));
#387=CARTESIAN_POINT('',(93.,0.,54.));
#388=CARTESIAN_POINT('',(93.,0.,0.));
#389=CARTESIAN_POINT('',(93.,0.,51.));
#390=CARTESIAN_POINT('',(0.,0.,0.));
#391=CARTESIAN_POINT('',(0.,0.,0.));
#392=CARTESIAN_POINT('',(10.,59.,0.));
#393=CARTESIAN_POINT('',(10.,0.,0.));
#394=CARTESIAN_POINT('',(10.,51.5,0.));
#395=CARTESIAN_POINT('',(9.99999999999999,0.,0.));
#396=CARTESIAN_POINT('',(9.99999999999999,66.5,0.));
#397=CARTESIAN_POINT('',(-10.,55.75,0.));
#398=CARTESIAN_POINT('',(-10.,0.,0.));
#399=CARTESIAN_POINT('',(-10.,54.,0.));
#400=CARTESIAN_POINT('',(-10.,0.,0.));
#401=CARTESIAN_POINT('',(-10.,57.5,0.));
#402=CARTESIAN_POINT('',(-5.,52.3,0.));
#403=CARTESIAN_POINT('',(-5.,0.,0.));
#404=CARTESIAN_POINT('',(-5.,51.,0.));
#405=CARTESIAN_POINT('',(-5.,0.,0.));
#406=CARTESIAN_POINT('',(-5.,53.6,0.));
#407=CARTESIAN_POINT('',(-5.39999999999999,7.10190385586085E-15,-2.08166817117217E-14));
#408=CARTESIAN_POINT('',(-5.4,0.,0.));
#409=CARTESIAN_POINT('',(-5.4,54.,0.));
#410=CARTESIAN_POINT('',(-7.7,0.,0.));
#411=CARTESIAN_POINT('',(-9.5,0.,0.));
#412=CARTESIAN_POINT('',(-9.,0.,0.));
#413=CARTESIAN_POINT('',(-9.,58.5,0.));
#414=CARTESIAN_POINT('',(-5.37697726473622,0.,0.));
#415=CARTESIAN_POINT('',(-1.75395452947243,0.,0.));
#416=CARTESIAN_POINT('',(-1.75395452947243,58.5,0.));
#417=CARTESIAN_POINT('',(-1.75395452947243,2.05816946636753E-14,-6.93889390390723E-15));
#418=CARTESIAN_POINT('',(-0.814261908686527,0.,0.));
#419=CARTESIAN_POINT('',(-0.814261908686527,59.1579798566743,0.));
#420=CARTESIAN_POINT('',(0.373383963080537,0.,0.));
#421=CARTESIAN_POINT('',(1.5610298348476,0.,0.));
#422=CARTESIAN_POINT('',(1.5610298348476,65.6840402866513,0.));
#423=CARTESIAN_POINT('',(3.44041507641941,0.,0.));
#424=CARTESIAN_POINT('',(3.44041507641941,0.,0.));
#425=CARTESIAN_POINT('',(3.44041507641941,67.,0.));
#426=CARTESIAN_POINT('',(6.4702075382097,0.,0.));
#427=CARTESIAN_POINT('',(9.49999999999999,0.,0.));
#428=CARTESIAN_POINT('',(9.49999999999999,67.,0.));
#429=CARTESIAN_POINT('',(9.74999999999999,0.,0.));
#430=CARTESIAN_POINT('',(9.75,0.,0.));
#431=CARTESIAN_POINT('',(9.49999999999999,0.,0.));
#432=CARTESIAN_POINT('',(9.49999999999999,51.,0.));
#433=CARTESIAN_POINT('',(2.25,0.,0.));
#434=CARTESIAN_POINT('',(98.,-2.77555756156289E-16,4.16333634234435E-16));
#435=CARTESIAN_POINT('',(-98.,-2.46519032881567E-31,-3.46944695195362E-16));
#436=MECHANICAL_DESIGN_GEOMETRIC_PRESENTATION_REPRESENTATION('',(#234,#235),
#437);
#437=(
GEOMETRIC_REPRESENTATION_CONTEXT(3)
GLOBAL_UNCERTAINTY_ASSIGNED_CONTEXT((#440))
GLOBAL_UNIT_ASSIGNED_CONTEXT((#445,#444,#443))
REPRESENTATION_CONTEXT('33.100003.244.310','TOP_LEVEL_ASSEMBLY_PART')
);
#438=(
GEOMETRIC_REPRESENTATION_CONTEXT(3)
GLOBAL_UNCERTAINTY_ASSIGNED_CONTEXT((#441))
GLOBAL_UNIT_ASSIGNED_CONTEXT((#445,#444,#443))
REPRESENTATION_CONTEXT('33.100003.244.310-Rohr','COMPONENT_PART')
);
#439=(
GEOMETRIC_REPRESENTATION_CONTEXT(3)
GLOBAL_UNCERTAINTY_ASSIGNED_CONTEXT((#442))
GLOBAL_UNIT_ASSIGNED_CONTEXT((#445,#444,#443))
REPRESENTATION_CONTEXT('32.100003.210.310','COMPONENT_PART')
);
#440=UNCERTAINTY_MEASURE_WITH_UNIT(LENGTH_MEASURE(0.005),#445,
'DISTANCE_ACCURACY_VALUE','Maximum Tolerance applied to model');
#441=UNCERTAINTY_MEASURE_WITH_UNIT(LENGTH_MEASURE(0.005),#445,
'DISTANCE_ACCURACY_VALUE','Maximum Tolerance applied to model');
#442=UNCERTAINTY_MEASURE_WITH_UNIT(LENGTH_MEASURE(0.005),#445,
'DISTANCE_ACCURACY_VALUE','Maximum Tolerance applied to model');
#443=(
NAMED_UNIT(*)
SI_UNIT($,.STERADIAN.)
SOLID_ANGLE_UNIT()
);
#444=(
NAMED_UNIT(*)
PLANE_ANGLE_UNIT()
SI_UNIT($,.RADIAN.)
);
#445=(
LENGTH_UNIT()
NAMED_UNIT(*)
SI_UNIT(.MILLI.,.METRE.)
);
#446=PRODUCT_DEFINITION_SHAPE('','',#452);
#447=PRODUCT_DEFINITION_SHAPE('','',#453);
#448=PRODUCT_DEFINITION_SHAPE(' ','NAUO PRDDFN',#28);
#449=PRODUCT_DEFINITION_SHAPE('','',#454);
#450=PRODUCT_DEFINITION_SHAPE(' ','NAUO PRDDFN',#29);
#451=PRODUCT_DEFINITION_SHAPE(' ','NAUO PRDDFN',#30);
#452=PRODUCT_DEFINITION('','',#458,#455);
#453=PRODUCT_DEFINITION('','',#459,#456);
#454=PRODUCT_DEFINITION('','',#460,#457);
#455=PRODUCT_DEFINITION_CONTEXT('',#474,'design');
#456=PRODUCT_DEFINITION_CONTEXT('',#474,'design');
#457=PRODUCT_DEFINITION_CONTEXT('',#474,'design');
#458=PRODUCT_DEFINITION_FORMATION_WITH_SPECIFIED_SOURCE('','',#464,
 .NOT_KNOWN.);
#459=PRODUCT_DEFINITION_FORMATION_WITH_SPECIFIED_SOURCE('','',#465,
 .NOT_KNOWN.);
#460=PRODUCT_DEFINITION_FORMATION_WITH_SPECIFIED_SOURCE('','',#466,
 .NOT_KNOWN.);
#461=PRODUCT_RELATED_PRODUCT_CATEGORY('','',(#464));
#462=PRODUCT_RELATED_PRODUCT_CATEGORY('','',(#465));
#463=PRODUCT_RELATED_PRODUCT_CATEGORY('','',(#466));
#464=PRODUCT('33.100003.244.310','33.100003.244.310',
'33.100003.244.310',(#470));
#465=PRODUCT('33.100003.244.310-Rohr','33.100003.244.310-Rohr',
'33.100003.244.310-Rohr',(#471));
#466=PRODUCT('32.100003.210.310','32.100003.210.310',
'32.100003.210.310',(#472));
#467=PRODUCT_CATEGORY('','');
#468=PRODUCT_CATEGORY('','');
#469=PRODUCT_CATEGORY('','');
#470=PRODUCT_CONTEXT('',#474,'mechanical');
#471=PRODUCT_CONTEXT('',#474,'mechanical');
#472=PRODUCT_CONTEXT('',#474,'mechanical');
#473=APPLICATION_PROTOCOL_DEFINITION('international standard',
'automotive_design',2010,#474);
#474=APPLICATION_CONTEXT(
'core data for automotive mechanical design processes');
ENDSEC;
END-ISO-10303-21;
