ISO-10303-21;
HEADER;
/* Generated by software containing ST-Developer
 * from STEP Tools, Inc. (www.steptools.com) 
 */
/* OPTION: strings as raw bytes, not using required /X/ escapes */

FILE_DESCRIPTION(
/* description */ (''),
/* implementation_level */ '2;1');

FILE_NAME(
/* name */ '33.100003.260.310',
/* time_stamp */ '2019-06-18T12:12:31+02:00',
/* author */ ('Murat Coskun Bicak'),
/* organization */ ('Evac AG'),
/* preprocessor_version */ 'ST-DEVELOPER v16.7',
/* originating_system */ 'DEX',
/* authorisation */ $);

FILE_SCHEMA (('AUTOMOTIVE_DESIGN {1 0 10303 214 3 1 1}'));
ENDSEC;

DATA;
#10=PROPERTY_DEFINITION_REPRESENTATION(#14,#12);
#11=PROPERTY_DEFINITION_REPRESENTATION(#15,#13);
#12=REPRESENTATION('',(#16),#539);
#13=REPRESENTATION('',(#17),#539);
#14=PROPERTY_DEFINITION('pmi validation property','',#548);
#15=PROPERTY_DEFINITION('pmi validation property','',#548);
#16=VALUE_REPRESENTATION_ITEM('number of annotations',COUNT_MEASURE(0.));
#17=VALUE_REPRESENTATION_ITEM('number of views',COUNT_MEASURE(0.));
#18=CONICAL_SURFACE('',#345,58.,0.785398163397448);
#19=CONICAL_SURFACE('',#351,62.4210100716628,1.22173047639603);
#20=CONICAL_SURFACE('',#357,66.75,0.785398163397448);
#21=CONICAL_SURFACE('',#358,51.25,0.785398163397445);
#22=TOROIDAL_SURFACE('',#342,53.6,0.399999999999997);
#23=TOROIDAL_SURFACE('',#349,59.5,1.);
#24=TOROIDAL_SURFACE('',#353,65.,2.00000000000001);
#25=CONTEXT_DEPENDENT_SHAPE_REPRESENTATION(#33,#550);
#26=CONTEXT_DEPENDENT_SHAPE_REPRESENTATION(#34,#552);
#27=CONTEXT_DEPENDENT_SHAPE_REPRESENTATION(#35,#553);
#28=CONTEXT_DEPENDENT_SHAPE_REPRESENTATION(#36,#554);
#29=NEXT_ASSEMBLY_USAGE_OCCURRENCE('33.100003.260.310-Rohr',
'33.100003.260.310-Rohr','33.100003.260.310-Rohr',#555,#556,'');
#30=NEXT_ASSEMBLY_USAGE_OCCURRENCE('32.100003.210.310',
'32.100003.210.310','32.100003.210.310',#555,#557,'');
#31=NEXT_ASSEMBLY_USAGE_OCCURRENCE('32.100003.210.310',
'32.100003.210.310','32.100003.210.310',#555,#557,'');
#32=NEXT_ASSEMBLY_USAGE_OCCURRENCE('32.100003.210.310',
'32.100003.210.310','32.100003.210.310',#555,#557,'');
#33=(
REPRESENTATION_RELATIONSHIP(' ',' ',#311,#312)
REPRESENTATION_RELATIONSHIP_WITH_TRANSFORMATION(#37)
SHAPE_REPRESENTATION_RELATIONSHIP()
);
#34=(
REPRESENTATION_RELATIONSHIP(' ',' ',#313,#312)
REPRESENTATION_RELATIONSHIP_WITH_TRANSFORMATION(#38)
SHAPE_REPRESENTATION_RELATIONSHIP()
);
#35=(
REPRESENTATION_RELATIONSHIP(' ',' ',#313,#312)
REPRESENTATION_RELATIONSHIP_WITH_TRANSFORMATION(#39)
SHAPE_REPRESENTATION_RELATIONSHIP()
);
#36=(
REPRESENTATION_RELATIONSHIP(' ',' ',#313,#312)
REPRESENTATION_RELATIONSHIP_WITH_TRANSFORMATION(#40)
SHAPE_REPRESENTATION_RELATIONSHIP()
);
#37=ITEM_DEFINED_TRANSFORMATION(' ',' ',#314,#332);
#38=ITEM_DEFINED_TRANSFORMATION(' ',' ',#314,#361);
#39=ITEM_DEFINED_TRANSFORMATION(' ',' ',#314,#362);
#40=ITEM_DEFINED_TRANSFORMATION(' ',' ',#314,#363);
#41=SHAPE_REPRESENTATION_RELATIONSHIP('','',#311,#43);
#42=SHAPE_REPRESENTATION_RELATIONSHIP('','',#313,#44);
#43=ADVANCED_BREP_SHAPE_REPRESENTATION('',(#306),#540);
#44=ADVANCED_BREP_SHAPE_REPRESENTATION('',(#307),#541);
#45=PLANE('',#329);
#46=PLANE('',#330);
#47=PLANE('',#331);
#48=PLANE('',#333);
#49=PLANE('',#336);
#50=PLANE('',#339);
#51=ELLIPSE('',#318,72.1248916810278,51.);
#52=ELLIPSE('',#319,72.1248916810279,51.);
#53=ELLIPSE('',#322,76.3675323681471,54.);
#54=ELLIPSE('',#323,76.3675323681471,54.);
#55=ORIENTED_EDGE('',*,*,#103,.T.);
#56=ORIENTED_EDGE('',*,*,#104,.F.);
#57=ORIENTED_EDGE('',*,*,#105,.F.);
#58=ORIENTED_EDGE('',*,*,#106,.F.);
#59=ORIENTED_EDGE('',*,*,#107,.F.);
#60=ORIENTED_EDGE('',*,*,#108,.F.);
#61=ORIENTED_EDGE('',*,*,#109,.T.);
#62=ORIENTED_EDGE('',*,*,#110,.T.);
#63=ORIENTED_EDGE('',*,*,#105,.T.);
#64=ORIENTED_EDGE('',*,*,#106,.T.);
#65=ORIENTED_EDGE('',*,*,#111,.F.);
#66=ORIENTED_EDGE('',*,*,#109,.F.);
#67=ORIENTED_EDGE('',*,*,#108,.T.);
#68=ORIENTED_EDGE('',*,*,#112,.T.);
#69=ORIENTED_EDGE('',*,*,#112,.F.);
#70=ORIENTED_EDGE('',*,*,#104,.T.);
#71=ORIENTED_EDGE('',*,*,#107,.T.);
#72=ORIENTED_EDGE('',*,*,#110,.F.);
#73=ORIENTED_EDGE('',*,*,#103,.F.);
#74=ORIENTED_EDGE('',*,*,#111,.T.);
#75=ORIENTED_EDGE('',*,*,#113,.F.);
#76=ORIENTED_EDGE('',*,*,#114,.T.);
#77=ORIENTED_EDGE('',*,*,#115,.T.);
#78=ORIENTED_EDGE('',*,*,#116,.F.);
#79=ORIENTED_EDGE('',*,*,#117,.T.);
#80=ORIENTED_EDGE('',*,*,#118,.F.);
#81=ORIENTED_EDGE('',*,*,#119,.F.);
#82=ORIENTED_EDGE('',*,*,#118,.T.);
#83=ORIENTED_EDGE('',*,*,#119,.T.);
#84=ORIENTED_EDGE('',*,*,#115,.F.);
#85=ORIENTED_EDGE('',*,*,#120,.F.);
#86=ORIENTED_EDGE('',*,*,#116,.T.);
#87=ORIENTED_EDGE('',*,*,#121,.F.);
#88=ORIENTED_EDGE('',*,*,#120,.T.);
#89=ORIENTED_EDGE('',*,*,#122,.F.);
#90=ORIENTED_EDGE('',*,*,#121,.T.);
#91=ORIENTED_EDGE('',*,*,#123,.F.);
#92=ORIENTED_EDGE('',*,*,#122,.T.);
#93=ORIENTED_EDGE('',*,*,#124,.F.);
#94=ORIENTED_EDGE('',*,*,#123,.T.);
#95=ORIENTED_EDGE('',*,*,#125,.F.);
#96=ORIENTED_EDGE('',*,*,#124,.T.);
#97=ORIENTED_EDGE('',*,*,#114,.F.);
#98=ORIENTED_EDGE('',*,*,#125,.T.);
#99=ORIENTED_EDGE('',*,*,#113,.T.);
#100=ORIENTED_EDGE('',*,*,#126,.F.);
#101=ORIENTED_EDGE('',*,*,#126,.T.);
#102=ORIENTED_EDGE('',*,*,#117,.F.);
#103=EDGE_CURVE('',#127,#127,#151,.T.);
#104=EDGE_CURVE('',#128,#128,#152,.T.);
#105=EDGE_CURVE('',#129,#130,#51,.F.);
#106=EDGE_CURVE('',#130,#129,#52,.T.);
#107=EDGE_CURVE('',#131,#131,#153,.T.);
#108=EDGE_CURVE('',#132,#133,#53,.T.);
#109=EDGE_CURVE('',#132,#133,#54,.T.);
#110=EDGE_CURVE('',#134,#134,#154,.T.);
#111=EDGE_CURVE('',#135,#135,#155,.T.);
#112=EDGE_CURVE('',#136,#136,#156,.T.);
#113=EDGE_CURVE('',#137,#137,#157,.T.);
#114=EDGE_CURVE('',#138,#138,#158,.T.);
#115=EDGE_CURVE('',#139,#139,#159,.T.);
#116=EDGE_CURVE('',#140,#140,#160,.T.);
#117=EDGE_CURVE('',#141,#141,#161,.T.);
#118=EDGE_CURVE('',#142,#142,#162,.T.);
#119=EDGE_CURVE('',#143,#143,#163,.T.);
#120=EDGE_CURVE('',#144,#144,#164,.T.);
#121=EDGE_CURVE('',#145,#145,#165,.T.);
#122=EDGE_CURVE('',#146,#146,#166,.T.);
#123=EDGE_CURVE('',#147,#147,#167,.T.);
#124=EDGE_CURVE('',#148,#148,#168,.T.);
#125=EDGE_CURVE('',#149,#149,#169,.T.);
#126=EDGE_CURVE('',#150,#150,#170,.T.);
#127=VERTEX_POINT('',#467);
#128=VERTEX_POINT('',#469);
#129=VERTEX_POINT('',#471);
#130=VERTEX_POINT('',#472);
#131=VERTEX_POINT('',#476);
#132=VERTEX_POINT('',#478);
#133=VERTEX_POINT('',#479);
#134=VERTEX_POINT('',#483);
#135=VERTEX_POINT('',#486);
#136=VERTEX_POINT('',#488);
#137=VERTEX_POINT('',#495);
#138=VERTEX_POINT('',#497);
#139=VERTEX_POINT('',#500);
#140=VERTEX_POINT('',#502);
#141=VERTEX_POINT('',#505);
#142=VERTEX_POINT('',#507);
#143=VERTEX_POINT('',#510);
#144=VERTEX_POINT('',#514);
#145=VERTEX_POINT('',#517);
#146=VERTEX_POINT('',#520);
#147=VERTEX_POINT('',#523);
#148=VERTEX_POINT('',#526);
#149=VERTEX_POINT('',#529);
#150=VERTEX_POINT('',#533);
#151=CIRCLE('',#316,51.);
#152=CIRCLE('',#317,51.);
#153=CIRCLE('',#321,54.);
#154=CIRCLE('',#325,51.);
#155=CIRCLE('',#327,54.);
#156=CIRCLE('',#328,54.);
#157=CIRCLE('',#334,51.5);
#158=CIRCLE('',#335,66.5);
#159=CIRCLE('',#337,54.);
#160=CIRCLE('',#338,57.5);
#161=CIRCLE('',#340,51.);
#162=CIRCLE('',#341,53.6);
#163=CIRCLE('',#343,54.);
#164=CIRCLE('',#346,58.5);
#165=CIRCLE('',#348,58.5);
#166=CIRCLE('',#350,59.1579798566743);
#167=CIRCLE('',#352,65.6840402866513);
#168=CIRCLE('',#354,67.);
#169=CIRCLE('',#356,67.);
#170=CIRCLE('',#359,51.);
#171=EDGE_LOOP('',(#55));
#172=EDGE_LOOP('',(#56));
#173=EDGE_LOOP('',(#57,#58));
#174=EDGE_LOOP('',(#59));
#175=EDGE_LOOP('',(#60,#61));
#176=EDGE_LOOP('',(#62));
#177=EDGE_LOOP('',(#63,#64));
#178=EDGE_LOOP('',(#65));
#179=EDGE_LOOP('',(#66,#67));
#180=EDGE_LOOP('',(#68));
#181=EDGE_LOOP('',(#69));
#182=EDGE_LOOP('',(#70));
#183=EDGE_LOOP('',(#71));
#184=EDGE_LOOP('',(#72));
#185=EDGE_LOOP('',(#73));
#186=EDGE_LOOP('',(#74));
#187=EDGE_LOOP('',(#75));
#188=EDGE_LOOP('',(#76));
#189=EDGE_LOOP('',(#77));
#190=EDGE_LOOP('',(#78));
#191=EDGE_LOOP('',(#79));
#192=EDGE_LOOP('',(#80));
#193=EDGE_LOOP('',(#81));
#194=EDGE_LOOP('',(#82));
#195=EDGE_LOOP('',(#83));
#196=EDGE_LOOP('',(#84));
#197=EDGE_LOOP('',(#85));
#198=EDGE_LOOP('',(#86));
#199=EDGE_LOOP('',(#87));
#200=EDGE_LOOP('',(#88));
#201=EDGE_LOOP('',(#89));
#202=EDGE_LOOP('',(#90));
#203=EDGE_LOOP('',(#91));
#204=EDGE_LOOP('',(#92));
#205=EDGE_LOOP('',(#93));
#206=EDGE_LOOP('',(#94));
#207=EDGE_LOOP('',(#95));
#208=EDGE_LOOP('',(#96));
#209=EDGE_LOOP('',(#97));
#210=EDGE_LOOP('',(#98));
#211=EDGE_LOOP('',(#99));
#212=EDGE_LOOP('',(#100));
#213=EDGE_LOOP('',(#101));
#214=EDGE_LOOP('',(#102));
#215=FACE_BOUND('',#171,.T.);
#216=FACE_BOUND('',#172,.T.);
#217=FACE_BOUND('',#173,.T.);
#218=FACE_BOUND('',#174,.T.);
#219=FACE_BOUND('',#175,.T.);
#220=FACE_BOUND('',#176,.T.);
#221=FACE_BOUND('',#177,.T.);
#222=FACE_BOUND('',#178,.T.);
#223=FACE_BOUND('',#179,.T.);
#224=FACE_BOUND('',#180,.T.);
#225=FACE_BOUND('',#181,.T.);
#226=FACE_BOUND('',#182,.T.);
#227=FACE_BOUND('',#183,.T.);
#228=FACE_BOUND('',#184,.T.);
#229=FACE_BOUND('',#185,.T.);
#230=FACE_BOUND('',#186,.T.);
#231=FACE_BOUND('',#187,.T.);
#232=FACE_BOUND('',#188,.T.);
#233=FACE_BOUND('',#189,.T.);
#234=FACE_BOUND('',#190,.T.);
#235=FACE_BOUND('',#191,.T.);
#236=FACE_BOUND('',#192,.T.);
#237=FACE_BOUND('',#193,.T.);
#238=FACE_BOUND('',#194,.T.);
#239=FACE_BOUND('',#195,.T.);
#240=FACE_BOUND('',#196,.T.);
#241=FACE_BOUND('',#197,.T.);
#242=FACE_BOUND('',#198,.T.);
#243=FACE_BOUND('',#199,.T.);
#244=FACE_BOUND('',#200,.T.);
#245=FACE_BOUND('',#201,.T.);
#246=FACE_BOUND('',#202,.T.);
#247=FACE_BOUND('',#203,.T.);
#248=FACE_BOUND('',#204,.T.);
#249=FACE_BOUND('',#205,.T.);
#250=FACE_BOUND('',#206,.T.);
#251=FACE_BOUND('',#207,.T.);
#252=FACE_BOUND('',#208,.T.);
#253=FACE_BOUND('',#209,.T.);
#254=FACE_BOUND('',#210,.T.);
#255=FACE_BOUND('',#211,.T.);
#256=FACE_BOUND('',#212,.T.);
#257=FACE_BOUND('',#213,.T.);
#258=FACE_BOUND('',#214,.T.);
#259=CYLINDRICAL_SURFACE('',#315,51.);
#260=CYLINDRICAL_SURFACE('',#320,54.);
#261=CYLINDRICAL_SURFACE('',#324,51.);
#262=CYLINDRICAL_SURFACE('',#326,54.);
#263=CYLINDRICAL_SURFACE('',#344,54.);
#264=CYLINDRICAL_SURFACE('',#347,58.5);
#265=CYLINDRICAL_SURFACE('',#355,67.);
#266=CYLINDRICAL_SURFACE('',#360,51.);
#267=ADVANCED_FACE('',(#215,#216,#217),#259,.F.);
#268=ADVANCED_FACE('',(#218,#219),#260,.T.);
#269=ADVANCED_FACE('',(#220,#221),#261,.F.);
#270=ADVANCED_FACE('',(#222,#223,#224),#262,.T.);
#271=ADVANCED_FACE('',(#225,#226),#45,.F.);
#272=ADVANCED_FACE('',(#227,#228),#46,.F.);
#273=ADVANCED_FACE('',(#229,#230),#47,.F.);
#274=ADVANCED_FACE('',(#231,#232),#48,.T.);
#275=ADVANCED_FACE('',(#233,#234),#49,.T.);
#276=ADVANCED_FACE('',(#235,#236),#50,.T.);
#277=ADVANCED_FACE('',(#237,#238),#22,.F.);
#278=ADVANCED_FACE('',(#239,#240),#263,.F.);
#279=ADVANCED_FACE('',(#241,#242),#18,.T.);
#280=ADVANCED_FACE('',(#243,#244),#264,.T.);
#281=ADVANCED_FACE('',(#245,#246),#23,.F.);
#282=ADVANCED_FACE('',(#247,#248),#19,.T.);
#283=ADVANCED_FACE('',(#249,#250),#24,.T.);
#284=ADVANCED_FACE('',(#251,#252),#265,.T.);
#285=ADVANCED_FACE('',(#253,#254),#20,.T.);
#286=ADVANCED_FACE('',(#255,#256),#21,.F.);
#287=ADVANCED_FACE('',(#257,#258),#266,.F.);
#288=CLOSED_SHELL('',(#267,#268,#269,#270,#271,#272,#273));
#289=CLOSED_SHELL('',(#274,#275,#276,#277,#278,#279,#280,#281,#282,#283,
#284,#285,#286,#287));
#290=STYLED_ITEM('',(#292),#306);
#291=STYLED_ITEM('',(#293),#307);
#292=PRESENTATION_STYLE_ASSIGNMENT((#294));
#293=PRESENTATION_STYLE_ASSIGNMENT((#295));
#294=SURFACE_STYLE_USAGE(.BOTH.,#296);
#295=SURFACE_STYLE_USAGE(.BOTH.,#297);
#296=SURFACE_SIDE_STYLE('',(#298));
#297=SURFACE_SIDE_STYLE('',(#299));
#298=SURFACE_STYLE_FILL_AREA(#300);
#299=SURFACE_STYLE_FILL_AREA(#301);
#300=FILL_AREA_STYLE('',(#302));
#301=FILL_AREA_STYLE('',(#303));
#302=FILL_AREA_STYLE_COLOUR('',#304);
#303=FILL_AREA_STYLE_COLOUR('',#305);
#304=COLOUR_RGB('',0.506983280181885,0.531564235687256,0.550000011920929);
#305=COLOUR_RGB('',0.423529446125031,0.423529446125031,0.470588266849518);
#306=MANIFOLD_SOLID_BREP('',#288);
#307=MANIFOLD_SOLID_BREP('',#289);
#308=SHAPE_DEFINITION_REPRESENTATION(#549,#311);
#309=SHAPE_DEFINITION_REPRESENTATION(#548,#312);
#310=SHAPE_DEFINITION_REPRESENTATION(#551,#313);
#311=SHAPE_REPRESENTATION('33.100003.260.310-Rohr',(#314),#540);
#312=SHAPE_REPRESENTATION('33.100003.260.310',(#314,#332,#361,#362,#363),
#539);
#313=SHAPE_REPRESENTATION('32.100003.210.310',(#314),#541);
#314=AXIS2_PLACEMENT_3D('',#464,#364,#365);
#315=AXIS2_PLACEMENT_3D('',#465,#366,#367);
#316=AXIS2_PLACEMENT_3D('',#466,#368,#369);
#317=AXIS2_PLACEMENT_3D('',#468,#370,#371);
#318=AXIS2_PLACEMENT_3D('',#470,#372,#373);
#319=AXIS2_PLACEMENT_3D('',#473,#374,#375);
#320=AXIS2_PLACEMENT_3D('',#474,#376,#377);
#321=AXIS2_PLACEMENT_3D('',#475,#378,#379);
#322=AXIS2_PLACEMENT_3D('',#477,#380,#381);
#323=AXIS2_PLACEMENT_3D('',#480,#382,#383);
#324=AXIS2_PLACEMENT_3D('',#481,#384,#385);
#325=AXIS2_PLACEMENT_3D('',#482,#386,#387);
#326=AXIS2_PLACEMENT_3D('',#484,#388,#389);
#327=AXIS2_PLACEMENT_3D('',#485,#390,#391);
#328=AXIS2_PLACEMENT_3D('',#487,#392,#393);
#329=AXIS2_PLACEMENT_3D('',#489,#394,#395);
#330=AXIS2_PLACEMENT_3D('',#490,#396,#397);
#331=AXIS2_PLACEMENT_3D('',#491,#398,#399);
#332=AXIS2_PLACEMENT_3D('',#492,#400,#401);
#333=AXIS2_PLACEMENT_3D('',#493,#402,#403);
#334=AXIS2_PLACEMENT_3D('',#494,#404,#405);
#335=AXIS2_PLACEMENT_3D('',#496,#406,#407);
#336=AXIS2_PLACEMENT_3D('',#498,#408,#409);
#337=AXIS2_PLACEMENT_3D('',#499,#410,#411);
#338=AXIS2_PLACEMENT_3D('',#501,#412,#413);
#339=AXIS2_PLACEMENT_3D('',#503,#414,#415);
#340=AXIS2_PLACEMENT_3D('',#504,#416,#417);
#341=AXIS2_PLACEMENT_3D('',#506,#418,#419);
#342=AXIS2_PLACEMENT_3D('',#508,#420,#421);
#343=AXIS2_PLACEMENT_3D('',#509,#422,#423);
#344=AXIS2_PLACEMENT_3D('',#511,#424,#425);
#345=AXIS2_PLACEMENT_3D('',#512,#426,#427);
#346=AXIS2_PLACEMENT_3D('',#513,#428,#429);
#347=AXIS2_PLACEMENT_3D('',#515,#430,#431);
#348=AXIS2_PLACEMENT_3D('',#516,#432,#433);
#349=AXIS2_PLACEMENT_3D('',#518,#434,#435);
#350=AXIS2_PLACEMENT_3D('',#519,#436,#437);
#351=AXIS2_PLACEMENT_3D('',#521,#438,#439);
#352=AXIS2_PLACEMENT_3D('',#522,#440,#441);
#353=AXIS2_PLACEMENT_3D('',#524,#442,#443);
#354=AXIS2_PLACEMENT_3D('',#525,#444,#445);
#355=AXIS2_PLACEMENT_3D('',#527,#446,#447);
#356=AXIS2_PLACEMENT_3D('',#528,#448,#449);
#357=AXIS2_PLACEMENT_3D('',#530,#450,#451);
#358=AXIS2_PLACEMENT_3D('',#531,#452,#453);
#359=AXIS2_PLACEMENT_3D('',#532,#454,#455);
#360=AXIS2_PLACEMENT_3D('',#534,#456,#457);
#361=AXIS2_PLACEMENT_3D('',#535,#458,#459);
#362=AXIS2_PLACEMENT_3D('',#536,#460,#461);
#363=AXIS2_PLACEMENT_3D('',#537,#462,#463);
#364=DIRECTION('',(0.,0.,1.));
#365=DIRECTION('',(1.,0.,0.));
#366=DIRECTION('',(-1.,0.,0.));
#367=DIRECTION('',(0.,0.,1.));
#368=DIRECTION('',(-1.,0.,0.));
#369=DIRECTION('',(0.,0.,1.));
#370=DIRECTION('',(-1.,0.,0.));
#371=DIRECTION('',(0.,0.,1.));
#372=DIRECTION('',(-0.707106781186548,0.,-0.707106781186547));
#373=DIRECTION('',(-0.707106781186547,0.,0.707106781186548));
#374=DIRECTION('',(-0.707106781186547,0.,0.707106781186548));
#375=DIRECTION('',(-0.707106781186548,0.,-0.707106781186547));
#376=DIRECTION('',(2.22044604925031E-16,0.,1.));
#377=DIRECTION('',(-1.,0.,-2.22044604925031E-16));
#378=DIRECTION('',(-2.22044604925031E-16,0.,-1.));
#379=DIRECTION('',(-1.,0.,-2.22044604925031E-16));
#380=DIRECTION('',(-0.707106781186547,0.,0.707106781186548));
#381=DIRECTION('',(0.707106781186548,0.,0.707106781186547));
#382=DIRECTION('',(-0.707106781186548,0.,-0.707106781186547));
#383=DIRECTION('',(-0.707106781186547,0.,0.707106781186548));
#384=DIRECTION('',(2.22044604925031E-16,0.,1.));
#385=DIRECTION('',(-1.,0.,-2.22044604925031E-16));
#386=DIRECTION('',(-2.22044604925031E-16,0.,-1.));
#387=DIRECTION('',(-1.,0.,-2.22044604925031E-16));
#388=DIRECTION('',(-1.,0.,0.));
#389=DIRECTION('',(0.,0.,1.));
#390=DIRECTION('',(-1.,0.,0.));
#391=DIRECTION('',(0.,0.,1.));
#392=DIRECTION('',(-1.,0.,0.));
#393=DIRECTION('',(0.,0.,1.));
#394=DIRECTION('',(-1.,0.,0.));
#395=DIRECTION('',(0.,0.,1.));
#396=DIRECTION('',(2.22044604925031E-16,0.,1.));
#397=DIRECTION('',(-1.,0.,-2.22044604925031E-16));
#398=DIRECTION('',(1.,0.,0.));
#399=DIRECTION('',(0.,0.,-1.));
#400=DIRECTION('',(0.,0.,1.));
#401=DIRECTION('',(1.,0.,0.));
#402=DIRECTION('',(1.,0.,0.));
#403=DIRECTION('',(0.,0.,-1.));
#404=DIRECTION('',(1.,0.,0.));
#405=DIRECTION('',(0.,1.,0.));
#406=DIRECTION('',(1.,0.,0.));
#407=DIRECTION('',(0.,1.,0.));
#408=DIRECTION('',(-1.,0.,0.));
#409=DIRECTION('',(0.,0.,1.));
#410=DIRECTION('',(1.,0.,0.));
#411=DIRECTION('',(0.,1.,0.));
#412=DIRECTION('',(1.,0.,0.));
#413=DIRECTION('',(0.,1.,0.));
#414=DIRECTION('',(-1.,0.,0.));
#415=DIRECTION('',(0.,0.,1.));
#416=DIRECTION('',(1.,0.,0.));
#417=DIRECTION('',(0.,1.,0.));
#418=DIRECTION('',(1.,0.,0.));
#419=DIRECTION('',(0.,1.,0.));
#420=DIRECTION('',(1.,0.,0.));
#421=DIRECTION('',(0.,0.,-1.));
#422=DIRECTION('',(1.,0.,0.));
#423=DIRECTION('',(0.,1.,0.));
#424=DIRECTION('',(1.,0.,0.));
#425=DIRECTION('',(0.,1.,0.));
#426=DIRECTION('',(1.,0.,0.));
#427=DIRECTION('',(0.,1.,0.));
#428=DIRECTION('',(1.,0.,0.));
#429=DIRECTION('',(0.,1.,0.));
#430=DIRECTION('',(1.,0.,0.));
#431=DIRECTION('',(0.,1.,0.));
#432=DIRECTION('',(1.,0.,0.));
#433=DIRECTION('',(0.,1.,0.));
#434=DIRECTION('',(1.,0.,0.));
#435=DIRECTION('',(0.,0.,-1.));
#436=DIRECTION('',(1.,0.,0.));
#437=DIRECTION('',(0.,1.,0.));
#438=DIRECTION('',(1.,0.,0.));
#439=DIRECTION('',(0.,1.,0.));
#440=DIRECTION('',(1.,0.,0.));
#441=DIRECTION('',(0.,1.,0.));
#442=DIRECTION('',(1.,0.,0.));
#443=DIRECTION('',(0.,0.,-1.));
#444=DIRECTION('',(1.,0.,0.));
#445=DIRECTION('',(0.,1.,0.));
#446=DIRECTION('',(1.,0.,0.));
#447=DIRECTION('',(0.,1.,0.));
#448=DIRECTION('',(1.,0.,0.));
#449=DIRECTION('',(0.,1.,0.));
#450=DIRECTION('',(-1.,0.,0.));
#451=DIRECTION('',(0.,1.,0.));
#452=DIRECTION('',(1.,0.,0.));
#453=DIRECTION('',(0.,1.,0.));
#454=DIRECTION('',(1.,0.,0.));
#455=DIRECTION('',(0.,1.,0.));
#456=DIRECTION('',(1.,0.,0.));
#457=DIRECTION('',(0.,1.,0.));
#458=DIRECTION('',(-1.38777878078145E-17,4.27642353614752E-49,1.));
#459=DIRECTION('',(1.,-5.55111512312579E-17,1.38777878078145E-17));
#460=DIRECTION('',(2.30027736598708E-17,0.924224592736303,0.381849318686592));
#461=DIRECTION('',(-1.,2.7755575615629E-17,-6.93889390390726E-18));
#462=DIRECTION('',(-0.381849318686592,0.924224592736303,1.3155063569727E-16));
#463=DIRECTION('',(-3.44509284839767E-16,7.39557098644699E-32,-1.));
#464=CARTESIAN_POINT('',(0.,0.,0.));
#465=CARTESIAN_POINT('',(0.,0.,0.));
#466=CARTESIAN_POINT('',(-93.,0.,0.));
#467=CARTESIAN_POINT('',(-93.,0.,51.));
#468=CARTESIAN_POINT('',(93.,0.,0.));
#469=CARTESIAN_POINT('',(93.,0.,51.));
#470=CARTESIAN_POINT('',(-3.42113882891801E-46,0.,0.));
#471=CARTESIAN_POINT('',(-3.08148791101958E-30,-51.,-1.38777878078145E-14));
#472=CARTESIAN_POINT('',(-3.08148791101958E-30,51.,-1.38777878078145E-14));
#473=CARTESIAN_POINT('',(-3.42113882891801E-46,0.,0.));
#474=CARTESIAN_POINT('',(0.,0.,0.));
#475=CARTESIAN_POINT('',(-2.06501482580279E-14,0.,-93.));
#476=CARTESIAN_POINT('',(-54.,0.,-93.));
#477=CARTESIAN_POINT('',(0.,0.,0.));
#478=CARTESIAN_POINT('',(0.,54.,0.));
#479=CARTESIAN_POINT('',(1.16953769318572E-15,-54.,-2.41645143517755E-14));
#480=CARTESIAN_POINT('',(0.,0.,0.));
#481=CARTESIAN_POINT('',(0.,0.,0.));
#482=CARTESIAN_POINT('',(-2.06501482580279E-14,0.,-93.));
#483=CARTESIAN_POINT('',(-51.,0.,-93.));
#484=CARTESIAN_POINT('',(0.,0.,0.));
#485=CARTESIAN_POINT('',(-93.,0.,0.));
#486=CARTESIAN_POINT('',(-93.,0.,54.));
#487=CARTESIAN_POINT('',(93.,0.,0.));
#488=CARTESIAN_POINT('',(93.,0.,54.));
#489=CARTESIAN_POINT('',(93.,0.,51.));
#490=CARTESIAN_POINT('',(-51.,0.,-93.));
#491=CARTESIAN_POINT('',(-93.,0.,54.));
#492=CARTESIAN_POINT('',(0.,0.,0.));
#493=CARTESIAN_POINT('',(10.,59.,0.));
#494=CARTESIAN_POINT('',(10.,0.,0.));
#495=CARTESIAN_POINT('',(10.,51.5,0.));
#496=CARTESIAN_POINT('',(9.99999999999999,0.,0.));
#497=CARTESIAN_POINT('',(9.99999999999999,66.5,0.));
#498=CARTESIAN_POINT('',(-10.,55.75,0.));
#499=CARTESIAN_POINT('',(-10.,0.,0.));
#500=CARTESIAN_POINT('',(-10.,54.,0.));
#501=CARTESIAN_POINT('',(-10.,0.,0.));
#502=CARTESIAN_POINT('',(-10.,57.5,0.));
#503=CARTESIAN_POINT('',(-5.,52.3,0.));
#504=CARTESIAN_POINT('',(-5.,0.,0.));
#505=CARTESIAN_POINT('',(-5.,51.,0.));
#506=CARTESIAN_POINT('',(-5.,0.,0.));
#507=CARTESIAN_POINT('',(-5.,53.6,0.));
#508=CARTESIAN_POINT('',(-5.39999999999999,7.10190385586085E-15,-2.08166817117217E-14));
#509=CARTESIAN_POINT('',(-5.4,0.,0.));
#510=CARTESIAN_POINT('',(-5.4,54.,0.));
#511=CARTESIAN_POINT('',(-7.7,0.,0.));
#512=CARTESIAN_POINT('',(-9.5,0.,0.));
#513=CARTESIAN_POINT('',(-9.,0.,0.));
#514=CARTESIAN_POINT('',(-9.,58.5,0.));
#515=CARTESIAN_POINT('',(-5.37697726473622,0.,0.));
#516=CARTESIAN_POINT('',(-1.75395452947243,0.,0.));
#517=CARTESIAN_POINT('',(-1.75395452947243,58.5,0.));
#518=CARTESIAN_POINT('',(-1.75395452947243,2.05816946636753E-14,-6.93889390390723E-15));
#519=CARTESIAN_POINT('',(-0.814261908686527,0.,0.));
#520=CARTESIAN_POINT('',(-0.814261908686527,59.1579798566743,0.));
#521=CARTESIAN_POINT('',(0.373383963080537,0.,0.));
#522=CARTESIAN_POINT('',(1.5610298348476,0.,0.));
#523=CARTESIAN_POINT('',(1.5610298348476,65.6840402866513,0.));
#524=CARTESIAN_POINT('',(3.44041507641941,0.,0.));
#525=CARTESIAN_POINT('',(3.44041507641941,0.,0.));
#526=CARTESIAN_POINT('',(3.44041507641941,67.,0.));
#527=CARTESIAN_POINT('',(6.4702075382097,0.,0.));
#528=CARTESIAN_POINT('',(9.49999999999999,0.,0.));
#529=CARTESIAN_POINT('',(9.49999999999999,67.,0.));
#530=CARTESIAN_POINT('',(9.74999999999999,0.,0.));
#531=CARTESIAN_POINT('',(9.75,0.,0.));
#532=CARTESIAN_POINT('',(9.49999999999999,0.,0.));
#533=CARTESIAN_POINT('',(9.49999999999999,51.,0.));
#534=CARTESIAN_POINT('',(2.25,0.,0.));
#535=CARTESIAN_POINT('',(98.,-2.7755575615629E-16,6.93889390390724E-17));
#536=CARTESIAN_POINT('',(-98.,1.38777878078145E-16,-3.46944695195363E-17));
#537=CARTESIAN_POINT('',(-2.23726946822268E-14,7.14905195356545E-32,-98.));
#538=MECHANICAL_DESIGN_GEOMETRIC_PRESENTATION_REPRESENTATION('',(#290,#291),
#539);
#539=(
GEOMETRIC_REPRESENTATION_CONTEXT(3)
GLOBAL_UNCERTAINTY_ASSIGNED_CONTEXT((#542))
GLOBAL_UNIT_ASSIGNED_CONTEXT((#547,#546,#545))
REPRESENTATION_CONTEXT('33.100003.260.310','TOP_LEVEL_ASSEMBLY_PART')
);
#540=(
GEOMETRIC_REPRESENTATION_CONTEXT(3)
GLOBAL_UNCERTAINTY_ASSIGNED_CONTEXT((#543))
GLOBAL_UNIT_ASSIGNED_CONTEXT((#547,#546,#545))
REPRESENTATION_CONTEXT('33.100003.260.310-Rohr','COMPONENT_PART')
);
#541=(
GEOMETRIC_REPRESENTATION_CONTEXT(3)
GLOBAL_UNCERTAINTY_ASSIGNED_CONTEXT((#544))
GLOBAL_UNIT_ASSIGNED_CONTEXT((#547,#546,#545))
REPRESENTATION_CONTEXT('32.100003.210.310','COMPONENT_PART')
);
#542=UNCERTAINTY_MEASURE_WITH_UNIT(LENGTH_MEASURE(0.005),#547,
'DISTANCE_ACCURACY_VALUE','Maximum Tolerance applied to model');
#543=UNCERTAINTY_MEASURE_WITH_UNIT(LENGTH_MEASURE(0.005),#547,
'DISTANCE_ACCURACY_VALUE','Maximum Tolerance applied to model');
#544=UNCERTAINTY_MEASURE_WITH_UNIT(LENGTH_MEASURE(0.005),#547,
'DISTANCE_ACCURACY_VALUE','Maximum Tolerance applied to model');
#545=(
NAMED_UNIT(*)
SI_UNIT($,.STERADIAN.)
SOLID_ANGLE_UNIT()
);
#546=(
NAMED_UNIT(*)
PLANE_ANGLE_UNIT()
SI_UNIT($,.RADIAN.)
);
#547=(
LENGTH_UNIT()
NAMED_UNIT(*)
SI_UNIT(.MILLI.,.METRE.)
);
#548=PRODUCT_DEFINITION_SHAPE('','',#555);
#549=PRODUCT_DEFINITION_SHAPE('','',#556);
#550=PRODUCT_DEFINITION_SHAPE(' ','NAUO PRDDFN',#29);
#551=PRODUCT_DEFINITION_SHAPE('','',#557);
#552=PRODUCT_DEFINITION_SHAPE(' ','NAUO PRDDFN',#30);
#553=PRODUCT_DEFINITION_SHAPE(' ','NAUO PRDDFN',#31);
#554=PRODUCT_DEFINITION_SHAPE(' ','NAUO PRDDFN',#32);
#555=PRODUCT_DEFINITION('','',#561,#558);
#556=PRODUCT_DEFINITION('','',#562,#559);
#557=PRODUCT_DEFINITION('','',#563,#560);
#558=PRODUCT_DEFINITION_CONTEXT('',#577,'design');
#559=PRODUCT_DEFINITION_CONTEXT('',#577,'design');
#560=PRODUCT_DEFINITION_CONTEXT('',#577,'design');
#561=PRODUCT_DEFINITION_FORMATION_WITH_SPECIFIED_SOURCE('','',#567,
 .NOT_KNOWN.);
#562=PRODUCT_DEFINITION_FORMATION_WITH_SPECIFIED_SOURCE('','',#568,
 .NOT_KNOWN.);
#563=PRODUCT_DEFINITION_FORMATION_WITH_SPECIFIED_SOURCE('','',#569,
 .NOT_KNOWN.);
#564=PRODUCT_RELATED_PRODUCT_CATEGORY('','',(#567));
#565=PRODUCT_RELATED_PRODUCT_CATEGORY('','',(#568));
#566=PRODUCT_RELATED_PRODUCT_CATEGORY('','',(#569));
#567=PRODUCT('33.100003.260.310','33.100003.260.310',
'33.100003.260.310',(#573));
#568=PRODUCT('33.100003.260.310-Rohr','33.100003.260.310-Rohr',
'33.100003.260.310-Rohr',(#574));
#569=PRODUCT('32.100003.210.310','32.100003.210.310',
'32.100003.210.310',(#575));
#570=PRODUCT_CATEGORY('','');
#571=PRODUCT_CATEGORY('','');
#572=PRODUCT_CATEGORY('','');
#573=PRODUCT_CONTEXT('',#577,'mechanical');
#574=PRODUCT_CONTEXT('',#577,'mechanical');
#575=PRODUCT_CONTEXT('',#577,'mechanical');
#576=APPLICATION_PROTOCOL_DEFINITION('international standard',
'automotive_design',2010,#577);
#577=APPLICATION_CONTEXT(
'core data for automotive mechanical design processes');
ENDSEC;
END-ISO-10303-21;
