ISO-10303-21;
HEADER;
/* Generated by software containing ST-Developer
 * from STEP Tools, Inc. (www.steptools.com) 
 */
/* OPTION: strings as raw bytes, not using required /X/ escapes */

FILE_DESCRIPTION(
/* description */ (''),
/* implementation_level */ '2;1');

FILE_NAME(
/* name */ '33.160003.222.316',
/* time_stamp */ '2019-06-19T11:22:35+02:00',
/* author */ ('Murat Coskun Bicak'),
/* organization */ ('Evac AG'),
/* preprocessor_version */ 'ST-DEVELOPER v16.7',
/* originating_system */ 'DEX',
/* authorisation */ $);

FILE_SCHEMA (('AUTOMOTIVE_DESIGN {1 0 10303 214 3 1 1}'));
ENDSEC;

DATA;
#10=PROPERTY_DEFINITION_REPRESENTATION(#14,#12);
#11=PROPERTY_DEFINITION_REPRESENTATION(#15,#13);
#12=REPRESENTATION('',(#16),#429);
#13=REPRESENTATION('',(#17),#429);
#14=PROPERTY_DEFINITION('pmi validation property','',#438);
#15=PROPERTY_DEFINITION('pmi validation property','',#438);
#16=VALUE_REPRESENTATION_ITEM('number of annotations',COUNT_MEASURE(0.));
#17=VALUE_REPRESENTATION_ITEM('number of views',COUNT_MEASURE(0.));
#18=TOROIDAL_SURFACE('',#269,85.,1.);
#19=TOROIDAL_SURFACE('',#273,93.,2.);
#20=TOROIDAL_SURFACE('',#287,79.1,0.4);
#21=CONICAL_SURFACE('',#264,83.,0.785398163397448);
#22=CONICAL_SURFACE('',#271,84.6579798566743,1.22173047639603);
#23=CONICAL_SURFACE('',#277,95.,0.785398163397448);
#24=CONICAL_SURFACE('',#281,77.,0.785398163397448);
#25=CONTEXT_DEPENDENT_SHAPE_REPRESENTATION(#29,#440);
#26=CONTEXT_DEPENDENT_SHAPE_REPRESENTATION(#30,#442);
#27=NEXT_ASSEMBLY_USAGE_OCCURRENCE('33.160003.222.316-Rohr',
'33.160003.222.316-Rohr','33.160003.222.316-Rohr',#443,#444,'');
#28=NEXT_ASSEMBLY_USAGE_OCCURRENCE('32.160003.210.316',
'32.160003.210.316','32.160003.210.316',#443,#445,'');
#29=(
REPRESENTATION_RELATIONSHIP(' ',' ',#251,#252)
REPRESENTATION_RELATIONSHIP_WITH_TRANSFORMATION(#31)
SHAPE_REPRESENTATION_RELATIONSHIP()
);
#30=(
REPRESENTATION_RELATIONSHIP(' ',' ',#253,#252)
REPRESENTATION_RELATIONSHIP_WITH_TRANSFORMATION(#32)
SHAPE_REPRESENTATION_RELATIONSHIP()
);
#31=ITEM_DEFINED_TRANSFORMATION(' ',' ',#254,#263);
#32=ITEM_DEFINED_TRANSFORMATION(' ',' ',#254,#292);
#33=SHAPE_REPRESENTATION_RELATIONSHIP('','',#251,#35);
#34=SHAPE_REPRESENTATION_RELATIONSHIP('','',#253,#36);
#35=ADVANCED_BREP_SHAPE_REPRESENTATION('',(#246),#430);
#36=ADVANCED_BREP_SHAPE_REPRESENTATION('',(#247),#431);
#37=CYLINDRICAL_SURFACE('',#258,76.5);
#38=CYLINDRICAL_SURFACE('',#262,79.5);
#39=CYLINDRICAL_SURFACE('',#267,84.);
#40=CYLINDRICAL_SURFACE('',#275,95.);
#41=CYLINDRICAL_SURFACE('',#283,76.5);
#42=CYLINDRICAL_SURFACE('',#289,79.5);
#43=ORIENTED_EDGE('',*,*,#79,.F.);
#44=ORIENTED_EDGE('',*,*,#80,.T.);
#45=ORIENTED_EDGE('',*,*,#81,.F.);
#46=ORIENTED_EDGE('',*,*,#79,.T.);
#47=ORIENTED_EDGE('',*,*,#82,.F.);
#48=ORIENTED_EDGE('',*,*,#81,.T.);
#49=ORIENTED_EDGE('',*,*,#80,.F.);
#50=ORIENTED_EDGE('',*,*,#82,.T.);
#51=ORIENTED_EDGE('',*,*,#83,.T.);
#52=ORIENTED_EDGE('',*,*,#84,.F.);
#53=ORIENTED_EDGE('',*,*,#85,.T.);
#54=ORIENTED_EDGE('',*,*,#83,.F.);
#55=ORIENTED_EDGE('',*,*,#86,.T.);
#56=ORIENTED_EDGE('',*,*,#85,.F.);
#57=ORIENTED_EDGE('',*,*,#87,.T.);
#58=ORIENTED_EDGE('',*,*,#86,.F.);
#59=ORIENTED_EDGE('',*,*,#88,.T.);
#60=ORIENTED_EDGE('',*,*,#87,.F.);
#61=ORIENTED_EDGE('',*,*,#89,.T.);
#62=ORIENTED_EDGE('',*,*,#88,.F.);
#63=ORIENTED_EDGE('',*,*,#90,.T.);
#64=ORIENTED_EDGE('',*,*,#89,.F.);
#65=ORIENTED_EDGE('',*,*,#91,.T.);
#66=ORIENTED_EDGE('',*,*,#90,.F.);
#67=ORIENTED_EDGE('',*,*,#92,.T.);
#68=ORIENTED_EDGE('',*,*,#91,.F.);
#69=ORIENTED_EDGE('',*,*,#93,.T.);
#70=ORIENTED_EDGE('',*,*,#92,.F.);
#71=ORIENTED_EDGE('',*,*,#94,.T.);
#72=ORIENTED_EDGE('',*,*,#93,.F.);
#73=ORIENTED_EDGE('',*,*,#95,.T.);
#74=ORIENTED_EDGE('',*,*,#94,.F.);
#75=ORIENTED_EDGE('',*,*,#96,.T.);
#76=ORIENTED_EDGE('',*,*,#95,.F.);
#77=ORIENTED_EDGE('',*,*,#84,.T.);
#78=ORIENTED_EDGE('',*,*,#96,.F.);
#79=EDGE_CURVE('',#97,#97,#115,.T.);
#80=EDGE_CURVE('',#98,#98,#116,.T.);
#81=EDGE_CURVE('',#99,#99,#117,.T.);
#82=EDGE_CURVE('',#100,#100,#118,.T.);
#83=EDGE_CURVE('',#101,#101,#119,.T.);
#84=EDGE_CURVE('',#102,#102,#120,.T.);
#85=EDGE_CURVE('',#103,#103,#121,.T.);
#86=EDGE_CURVE('',#104,#104,#122,.T.);
#87=EDGE_CURVE('',#105,#105,#123,.T.);
#88=EDGE_CURVE('',#106,#106,#124,.T.);
#89=EDGE_CURVE('',#107,#107,#125,.T.);
#90=EDGE_CURVE('',#108,#108,#126,.T.);
#91=EDGE_CURVE('',#109,#109,#127,.T.);
#92=EDGE_CURVE('',#110,#110,#128,.T.);
#93=EDGE_CURVE('',#111,#111,#129,.T.);
#94=EDGE_CURVE('',#112,#112,#130,.T.);
#95=EDGE_CURVE('',#113,#113,#131,.T.);
#96=EDGE_CURVE('',#114,#114,#132,.T.);
#97=VERTEX_POINT('',#374);
#98=VERTEX_POINT('',#376);
#99=VERTEX_POINT('',#379);
#100=VERTEX_POINT('',#382);
#101=VERTEX_POINT('',#387);
#102=VERTEX_POINT('',#389);
#103=VERTEX_POINT('',#392);
#104=VERTEX_POINT('',#395);
#105=VERTEX_POINT('',#398);
#106=VERTEX_POINT('',#401);
#107=VERTEX_POINT('',#404);
#108=VERTEX_POINT('',#407);
#109=VERTEX_POINT('',#410);
#110=VERTEX_POINT('',#413);
#111=VERTEX_POINT('',#416);
#112=VERTEX_POINT('',#419);
#113=VERTEX_POINT('',#422);
#114=VERTEX_POINT('',#425);
#115=CIRCLE('',#256,76.5);
#116=CIRCLE('',#257,79.5);
#117=CIRCLE('',#259,76.5);
#118=CIRCLE('',#261,79.5);
#119=CIRCLE('',#265,84.);
#120=CIRCLE('',#266,83.);
#121=CIRCLE('',#268,84.);
#122=CIRCLE('',#270,84.6579798566743);
#123=CIRCLE('',#272,93.6840402866514);
#124=CIRCLE('',#274,95.);
#125=CIRCLE('',#276,95.);
#126=CIRCLE('',#278,94.5);
#127=CIRCLE('',#280,77.);
#128=CIRCLE('',#282,76.5);
#129=CIRCLE('',#284,76.5);
#130=CIRCLE('',#286,79.1);
#131=CIRCLE('',#288,79.5);
#132=CIRCLE('',#290,79.5);
#133=EDGE_LOOP('',(#43));
#134=EDGE_LOOP('',(#44));
#135=EDGE_LOOP('',(#45));
#136=EDGE_LOOP('',(#46));
#137=EDGE_LOOP('',(#47));
#138=EDGE_LOOP('',(#48));
#139=EDGE_LOOP('',(#49));
#140=EDGE_LOOP('',(#50));
#141=EDGE_LOOP('',(#51));
#142=EDGE_LOOP('',(#52));
#143=EDGE_LOOP('',(#53));
#144=EDGE_LOOP('',(#54));
#145=EDGE_LOOP('',(#55));
#146=EDGE_LOOP('',(#56));
#147=EDGE_LOOP('',(#57));
#148=EDGE_LOOP('',(#58));
#149=EDGE_LOOP('',(#59));
#150=EDGE_LOOP('',(#60));
#151=EDGE_LOOP('',(#61));
#152=EDGE_LOOP('',(#62));
#153=EDGE_LOOP('',(#63));
#154=EDGE_LOOP('',(#64));
#155=EDGE_LOOP('',(#65));
#156=EDGE_LOOP('',(#66));
#157=EDGE_LOOP('',(#67));
#158=EDGE_LOOP('',(#68));
#159=EDGE_LOOP('',(#69));
#160=EDGE_LOOP('',(#70));
#161=EDGE_LOOP('',(#71));
#162=EDGE_LOOP('',(#72));
#163=EDGE_LOOP('',(#73));
#164=EDGE_LOOP('',(#74));
#165=EDGE_LOOP('',(#75));
#166=EDGE_LOOP('',(#76));
#167=EDGE_LOOP('',(#77));
#168=EDGE_LOOP('',(#78));
#169=FACE_BOUND('',#133,.T.);
#170=FACE_BOUND('',#134,.T.);
#171=FACE_BOUND('',#135,.T.);
#172=FACE_BOUND('',#136,.T.);
#173=FACE_BOUND('',#137,.T.);
#174=FACE_BOUND('',#138,.T.);
#175=FACE_BOUND('',#139,.T.);
#176=FACE_BOUND('',#140,.T.);
#177=FACE_BOUND('',#141,.T.);
#178=FACE_BOUND('',#142,.T.);
#179=FACE_BOUND('',#143,.T.);
#180=FACE_BOUND('',#144,.T.);
#181=FACE_BOUND('',#145,.T.);
#182=FACE_BOUND('',#146,.T.);
#183=FACE_BOUND('',#147,.T.);
#184=FACE_BOUND('',#148,.T.);
#185=FACE_BOUND('',#149,.T.);
#186=FACE_BOUND('',#150,.T.);
#187=FACE_BOUND('',#151,.T.);
#188=FACE_BOUND('',#152,.T.);
#189=FACE_BOUND('',#153,.T.);
#190=FACE_BOUND('',#154,.T.);
#191=FACE_BOUND('',#155,.T.);
#192=FACE_BOUND('',#156,.T.);
#193=FACE_BOUND('',#157,.T.);
#194=FACE_BOUND('',#158,.T.);
#195=FACE_BOUND('',#159,.T.);
#196=FACE_BOUND('',#160,.T.);
#197=FACE_BOUND('',#161,.T.);
#198=FACE_BOUND('',#162,.T.);
#199=FACE_BOUND('',#163,.T.);
#200=FACE_BOUND('',#164,.T.);
#201=FACE_BOUND('',#165,.T.);
#202=FACE_BOUND('',#166,.T.);
#203=FACE_BOUND('',#167,.T.);
#204=FACE_BOUND('',#168,.T.);
#205=PLANE('',#255);
#206=PLANE('',#260);
#207=PLANE('',#279);
#208=PLANE('',#285);
#209=PLANE('',#291);
#210=ADVANCED_FACE('',(#169,#170),#205,.F.);
#211=ADVANCED_FACE('',(#171,#172),#37,.F.);
#212=ADVANCED_FACE('',(#173,#174),#206,.F.);
#213=ADVANCED_FACE('',(#175,#176),#38,.T.);
#214=ADVANCED_FACE('',(#177,#178),#21,.T.);
#215=ADVANCED_FACE('',(#179,#180),#39,.T.);
#216=ADVANCED_FACE('',(#181,#182),#18,.F.);
#217=ADVANCED_FACE('',(#183,#184),#22,.T.);
#218=ADVANCED_FACE('',(#185,#186),#19,.T.);
#219=ADVANCED_FACE('',(#187,#188),#40,.T.);
#220=ADVANCED_FACE('',(#189,#190),#23,.T.);
#221=ADVANCED_FACE('',(#191,#192),#207,.T.);
#222=ADVANCED_FACE('',(#193,#194),#24,.F.);
#223=ADVANCED_FACE('',(#195,#196),#41,.F.);
#224=ADVANCED_FACE('',(#197,#198),#208,.T.);
#225=ADVANCED_FACE('',(#199,#200),#20,.F.);
#226=ADVANCED_FACE('',(#201,#202),#42,.F.);
#227=ADVANCED_FACE('',(#203,#204),#209,.T.);
#228=CLOSED_SHELL('',(#210,#211,#212,#213));
#229=CLOSED_SHELL('',(#214,#215,#216,#217,#218,#219,#220,#221,#222,#223,
#224,#225,#226,#227));
#230=STYLED_ITEM('',(#232),#246);
#231=STYLED_ITEM('',(#233),#247);
#232=PRESENTATION_STYLE_ASSIGNMENT((#234));
#233=PRESENTATION_STYLE_ASSIGNMENT((#235));
#234=SURFACE_STYLE_USAGE(.BOTH.,#236);
#235=SURFACE_STYLE_USAGE(.BOTH.,#237);
#236=SURFACE_SIDE_STYLE('',(#238));
#237=SURFACE_SIDE_STYLE('',(#239));
#238=SURFACE_STYLE_FILL_AREA(#240);
#239=SURFACE_STYLE_FILL_AREA(#241);
#240=FILL_AREA_STYLE('',(#242));
#241=FILL_AREA_STYLE('',(#243));
#242=FILL_AREA_STYLE_COLOUR('',#244);
#243=FILL_AREA_STYLE_COLOUR('',#245);
#244=COLOUR_RGB('',0.506983280181885,0.531564235687256,0.550000011920929);
#245=COLOUR_RGB('',0.752941191196442,0.752941191196442,0.752941191196442);
#246=MANIFOLD_SOLID_BREP('',#228);
#247=MANIFOLD_SOLID_BREP('',#229);
#248=SHAPE_DEFINITION_REPRESENTATION(#439,#251);
#249=SHAPE_DEFINITION_REPRESENTATION(#438,#252);
#250=SHAPE_DEFINITION_REPRESENTATION(#441,#253);
#251=SHAPE_REPRESENTATION('33.160003.222.316-Rohr',(#254),#430);
#252=SHAPE_REPRESENTATION('33.160003.222.316',(#254,#263,#292),#429);
#253=SHAPE_REPRESENTATION('32.160003.210.316',(#254),#431);
#254=AXIS2_PLACEMENT_3D('',#371,#293,#294);
#255=AXIS2_PLACEMENT_3D('',#372,#295,#296);
#256=AXIS2_PLACEMENT_3D('',#373,#297,#298);
#257=AXIS2_PLACEMENT_3D('',#375,#299,#300);
#258=AXIS2_PLACEMENT_3D('',#377,#301,#302);
#259=AXIS2_PLACEMENT_3D('',#378,#303,#304);
#260=AXIS2_PLACEMENT_3D('',#380,#305,#306);
#261=AXIS2_PLACEMENT_3D('',#381,#307,#308);
#262=AXIS2_PLACEMENT_3D('',#383,#309,#310);
#263=AXIS2_PLACEMENT_3D('',#384,#311,#312);
#264=AXIS2_PLACEMENT_3D('',#385,#313,#314);
#265=AXIS2_PLACEMENT_3D('',#386,#315,#316);
#266=AXIS2_PLACEMENT_3D('',#388,#317,#318);
#267=AXIS2_PLACEMENT_3D('',#390,#319,#320);
#268=AXIS2_PLACEMENT_3D('',#391,#321,#322);
#269=AXIS2_PLACEMENT_3D('',#393,#323,#324);
#270=AXIS2_PLACEMENT_3D('',#394,#325,#326);
#271=AXIS2_PLACEMENT_3D('',#396,#327,#328);
#272=AXIS2_PLACEMENT_3D('',#397,#329,#330);
#273=AXIS2_PLACEMENT_3D('',#399,#331,#332);
#274=AXIS2_PLACEMENT_3D('',#400,#333,#334);
#275=AXIS2_PLACEMENT_3D('',#402,#335,#336);
#276=AXIS2_PLACEMENT_3D('',#403,#337,#338);
#277=AXIS2_PLACEMENT_3D('',#405,#339,#340);
#278=AXIS2_PLACEMENT_3D('',#406,#341,#342);
#279=AXIS2_PLACEMENT_3D('',#408,#343,#344);
#280=AXIS2_PLACEMENT_3D('',#409,#345,#346);
#281=AXIS2_PLACEMENT_3D('',#411,#347,#348);
#282=AXIS2_PLACEMENT_3D('',#412,#349,#350);
#283=AXIS2_PLACEMENT_3D('',#414,#351,#352);
#284=AXIS2_PLACEMENT_3D('',#415,#353,#354);
#285=AXIS2_PLACEMENT_3D('',#417,#355,#356);
#286=AXIS2_PLACEMENT_3D('',#418,#357,#358);
#287=AXIS2_PLACEMENT_3D('',#420,#359,#360);
#288=AXIS2_PLACEMENT_3D('',#421,#361,#362);
#289=AXIS2_PLACEMENT_3D('',#423,#363,#364);
#290=AXIS2_PLACEMENT_3D('',#424,#365,#366);
#291=AXIS2_PLACEMENT_3D('',#426,#367,#368);
#292=AXIS2_PLACEMENT_3D('',#427,#369,#370);
#293=DIRECTION('',(0.,0.,1.));
#294=DIRECTION('',(1.,0.,0.));
#295=DIRECTION('',(1.,0.,0.));
#296=DIRECTION('',(0.,0.,-1.));
#297=DIRECTION('',(-1.,0.,0.));
#298=DIRECTION('',(0.,0.,1.));
#299=DIRECTION('',(-1.,0.,0.));
#300=DIRECTION('',(0.,0.,1.));
#301=DIRECTION('',(-1.,0.,0.));
#302=DIRECTION('',(0.,0.,1.));
#303=DIRECTION('',(-1.,0.,0.));
#304=DIRECTION('',(0.,0.,1.));
#305=DIRECTION('',(-1.,0.,0.));
#306=DIRECTION('',(0.,0.,1.));
#307=DIRECTION('',(-1.,0.,0.));
#308=DIRECTION('',(0.,0.,1.));
#309=DIRECTION('',(-1.,0.,0.));
#310=DIRECTION('',(0.,0.,1.));
#311=DIRECTION('',(0.,0.,1.));
#312=DIRECTION('',(1.,0.,0.));
#313=DIRECTION('',(1.,0.,0.));
#314=DIRECTION('',(0.,0.,-1.));
#315=DIRECTION('',(-1.,0.,0.));
#316=DIRECTION('',(0.,0.,1.));
#317=DIRECTION('',(-1.,0.,0.));
#318=DIRECTION('',(0.,0.,1.));
#319=DIRECTION('',(-1.,0.,0.));
#320=DIRECTION('',(0.,0.,1.));
#321=DIRECTION('',(-1.,0.,0.));
#322=DIRECTION('',(0.,0.,1.));
#323=DIRECTION('',(-1.,0.,0.));
#324=DIRECTION('',(0.,0.,1.));
#325=DIRECTION('',(-1.,0.,0.));
#326=DIRECTION('',(0.,0.,1.));
#327=DIRECTION('',(1.,0.,0.));
#328=DIRECTION('',(0.,0.,-1.));
#329=DIRECTION('',(-1.,0.,0.));
#330=DIRECTION('',(0.,0.,1.));
#331=DIRECTION('',(-1.,0.,0.));
#332=DIRECTION('',(0.,0.,1.));
#333=DIRECTION('',(-1.,0.,0.));
#334=DIRECTION('',(0.,0.,1.));
#335=DIRECTION('',(-1.,0.,0.));
#336=DIRECTION('',(0.,0.,1.));
#337=DIRECTION('',(-1.,0.,0.));
#338=DIRECTION('',(0.,0.,1.));
#339=DIRECTION('',(-1.,0.,0.));
#340=DIRECTION('',(0.,0.,1.));
#341=DIRECTION('',(-1.,0.,0.));
#342=DIRECTION('',(0.,0.,1.));
#343=DIRECTION('',(1.,0.,0.));
#344=DIRECTION('',(0.,0.,-1.));
#345=DIRECTION('',(-1.,0.,0.));
#346=DIRECTION('',(0.,0.,1.));
#347=DIRECTION('',(1.,0.,0.));
#348=DIRECTION('',(0.,0.,-1.));
#349=DIRECTION('',(-1.,0.,0.));
#350=DIRECTION('',(0.,0.,1.));
#351=DIRECTION('',(-1.,0.,0.));
#352=DIRECTION('',(0.,0.,1.));
#353=DIRECTION('',(-1.,0.,0.));
#354=DIRECTION('',(0.,0.,1.));
#355=DIRECTION('',(-1.,0.,0.));
#356=DIRECTION('',(0.,0.,1.));
#357=DIRECTION('',(-1.,0.,0.));
#358=DIRECTION('',(0.,0.,1.));
#359=DIRECTION('',(-1.,0.,0.));
#360=DIRECTION('',(0.,0.,1.));
#361=DIRECTION('',(-1.,0.,0.));
#362=DIRECTION('',(0.,0.,1.));
#363=DIRECTION('',(-1.,0.,0.));
#364=DIRECTION('',(0.,0.,1.));
#365=DIRECTION('',(-1.,0.,0.));
#366=DIRECTION('',(0.,0.,1.));
#367=DIRECTION('',(-1.,0.,0.));
#368=DIRECTION('',(0.,0.,1.));
#369=DIRECTION('',(-3.33893309350341E-17,0.235329511158313,0.971915645093745));
#370=DIRECTION('',(1.,8.45677694538692E-17,1.38777878078145E-17));
#371=CARTESIAN_POINT('',(0.,0.,0.));
#372=CARTESIAN_POINT('',(-42.5,0.,79.5));
#373=CARTESIAN_POINT('',(-42.5,0.,0.));
#374=CARTESIAN_POINT('',(-42.5,0.,76.5));
#375=CARTESIAN_POINT('',(-42.5,0.,0.));
#376=CARTESIAN_POINT('',(-42.5,0.,79.5));
#377=CARTESIAN_POINT('',(0.,0.,0.));
#378=CARTESIAN_POINT('',(42.5,0.,0.));
#379=CARTESIAN_POINT('',(42.5,0.,76.5));
#380=CARTESIAN_POINT('',(42.5,0.,76.5));
#381=CARTESIAN_POINT('',(42.5,0.,0.));
#382=CARTESIAN_POINT('',(42.5,0.,79.5));
#383=CARTESIAN_POINT('',(0.,0.,0.));
#384=CARTESIAN_POINT('',(0.,0.,0.));
#385=CARTESIAN_POINT('',(-10.1892413793103,0.,0.));
#386=CARTESIAN_POINT('',(-9.18924137931033,0.,0.));
#387=CARTESIAN_POINT('',(-9.18924137931033,0.,84.));
#388=CARTESIAN_POINT('',(-10.1892413793103,0.,0.));
#389=CARTESIAN_POINT('',(-10.1892413793103,0.,83.));
#390=CARTESIAN_POINT('',(-60.,0.,0.));
#391=CARTESIAN_POINT('',(-3.03312149444827,0.,0.));
#392=CARTESIAN_POINT('',(-3.03312149444827,0.,84.));
#393=CARTESIAN_POINT('',(-3.03312149444827,0.,0.));
#394=CARTESIAN_POINT('',(-2.09342887366236,0.,0.));
#395=CARTESIAN_POINT('',(-2.09342887366236,0.,84.6579798566743));
#396=CARTESIAN_POINT('',(-2.09342887366236,0.,0.));
#397=CARTESIAN_POINT('',(1.19178845553726,0.,0.));
#398=CARTESIAN_POINT('',(1.19178845553726,0.,93.6840402866514));
#399=CARTESIAN_POINT('',(3.07117369710907,0.,0.));
#400=CARTESIAN_POINT('',(3.07117369710908,0.,0.));
#401=CARTESIAN_POINT('',(3.07117369710908,0.,95.));
#402=CARTESIAN_POINT('',(-60.,0.,0.));
#403=CARTESIAN_POINT('',(9.31075862068967,0.,0.));
#404=CARTESIAN_POINT('',(9.31075862068967,0.,95.));
#405=CARTESIAN_POINT('',(9.31075862068967,0.,0.));
#406=CARTESIAN_POINT('',(9.81075862068967,0.,0.));
#407=CARTESIAN_POINT('',(9.81075862068967,0.,94.5));
#408=CARTESIAN_POINT('',(9.81075862068966,0.,94.5));
#409=CARTESIAN_POINT('',(9.81075862068967,0.,0.));
#410=CARTESIAN_POINT('',(9.81075862068967,0.,77.));
#411=CARTESIAN_POINT('',(9.81075862068967,0.,0.));
#412=CARTESIAN_POINT('',(9.31075862068967,0.,0.));
#413=CARTESIAN_POINT('',(9.31075862068967,0.,76.5));
#414=CARTESIAN_POINT('',(-60.,0.,0.));
#415=CARTESIAN_POINT('',(-5.18924137931034,0.,0.));
#416=CARTESIAN_POINT('',(-5.18924137931034,0.,76.5));
#417=CARTESIAN_POINT('',(-5.18924137931034,0.,76.5));
#418=CARTESIAN_POINT('',(-5.18924137931034,0.,0.));
#419=CARTESIAN_POINT('',(-5.18924137931034,0.,79.1));
#420=CARTESIAN_POINT('',(-5.58924137931034,0.,0.));
#421=CARTESIAN_POINT('',(-5.58924137931033,0.,0.));
#422=CARTESIAN_POINT('',(-5.58924137931033,0.,79.5));
#423=CARTESIAN_POINT('',(-60.,0.,0.));
#424=CARTESIAN_POINT('',(-10.1892413793103,0.,0.));
#425=CARTESIAN_POINT('',(-10.1892413793103,0.,79.5));
#426=CARTESIAN_POINT('',(-10.1892413793103,0.,79.5));
#427=CARTESIAN_POINT('',(47.6892413793103,4.38842568605995E-16,7.20151907455997E-17));
#428=MECHANICAL_DESIGN_GEOMETRIC_PRESENTATION_REPRESENTATION('',(#230,#231),
#429);
#429=(
GEOMETRIC_REPRESENTATION_CONTEXT(3)
GLOBAL_UNCERTAINTY_ASSIGNED_CONTEXT((#432))
GLOBAL_UNIT_ASSIGNED_CONTEXT((#437,#436,#435))
REPRESENTATION_CONTEXT('33.160003.222.316','TOP_LEVEL_ASSEMBLY_PART')
);
#430=(
GEOMETRIC_REPRESENTATION_CONTEXT(3)
GLOBAL_UNCERTAINTY_ASSIGNED_CONTEXT((#433))
GLOBAL_UNIT_ASSIGNED_CONTEXT((#437,#436,#435))
REPRESENTATION_CONTEXT('33.160003.222.316-Rohr','COMPONENT_PART')
);
#431=(
GEOMETRIC_REPRESENTATION_CONTEXT(3)
GLOBAL_UNCERTAINTY_ASSIGNED_CONTEXT((#434))
GLOBAL_UNIT_ASSIGNED_CONTEXT((#437,#436,#435))
REPRESENTATION_CONTEXT('32.160003.210.316','COMPONENT_PART')
);
#432=UNCERTAINTY_MEASURE_WITH_UNIT(LENGTH_MEASURE(0.005),#437,
'DISTANCE_ACCURACY_VALUE','Maximum Tolerance applied to model');
#433=UNCERTAINTY_MEASURE_WITH_UNIT(LENGTH_MEASURE(0.005),#437,
'DISTANCE_ACCURACY_VALUE','Maximum Tolerance applied to model');
#434=UNCERTAINTY_MEASURE_WITH_UNIT(LENGTH_MEASURE(0.005),#437,
'DISTANCE_ACCURACY_VALUE','Maximum Tolerance applied to model');
#435=(
NAMED_UNIT(*)
SI_UNIT($,.STERADIAN.)
SOLID_ANGLE_UNIT()
);
#436=(
NAMED_UNIT(*)
PLANE_ANGLE_UNIT()
SI_UNIT($,.RADIAN.)
);
#437=(
LENGTH_UNIT()
NAMED_UNIT(*)
SI_UNIT(.MILLI.,.METRE.)
);
#438=PRODUCT_DEFINITION_SHAPE('','',#443);
#439=PRODUCT_DEFINITION_SHAPE('','',#444);
#440=PRODUCT_DEFINITION_SHAPE(' ','NAUO PRDDFN',#27);
#441=PRODUCT_DEFINITION_SHAPE('','',#445);
#442=PRODUCT_DEFINITION_SHAPE(' ','NAUO PRDDFN',#28);
#443=PRODUCT_DEFINITION('','',#449,#446);
#444=PRODUCT_DEFINITION('','',#450,#447);
#445=PRODUCT_DEFINITION('','',#451,#448);
#446=PRODUCT_DEFINITION_CONTEXT('',#465,'design');
#447=PRODUCT_DEFINITION_CONTEXT('',#465,'design');
#448=PRODUCT_DEFINITION_CONTEXT('',#465,'design');
#449=PRODUCT_DEFINITION_FORMATION_WITH_SPECIFIED_SOURCE('','',#455,
 .NOT_KNOWN.);
#450=PRODUCT_DEFINITION_FORMATION_WITH_SPECIFIED_SOURCE('','',#456,
 .NOT_KNOWN.);
#451=PRODUCT_DEFINITION_FORMATION_WITH_SPECIFIED_SOURCE('','',#457,
 .NOT_KNOWN.);
#452=PRODUCT_RELATED_PRODUCT_CATEGORY('','',(#455));
#453=PRODUCT_RELATED_PRODUCT_CATEGORY('','',(#456));
#454=PRODUCT_RELATED_PRODUCT_CATEGORY('','',(#457));
#455=PRODUCT('33.160003.222.316','33.160003.222.316',
'33.160003.222.316',(#461));
#456=PRODUCT('33.160003.222.316-Rohr','33.160003.222.316-Rohr',
'33.160003.222.316-Rohr',(#462));
#457=PRODUCT('32.160003.210.316','32.160003.210.316',
'32.160003.210.316',(#463));
#458=PRODUCT_CATEGORY('','');
#459=PRODUCT_CATEGORY('','');
#460=PRODUCT_CATEGORY('','');
#461=PRODUCT_CONTEXT('',#465,'mechanical');
#462=PRODUCT_CONTEXT('',#465,'mechanical');
#463=PRODUCT_CONTEXT('',#465,'mechanical');
#464=APPLICATION_PROTOCOL_DEFINITION('international standard',
'automotive_design',2010,#465);
#465=APPLICATION_CONTEXT(
'core data for automotive mechanical design processes');
ENDSEC;
END-ISO-10303-21;
