ISO-10303-21;
HEADER;
/* Generated by software containing ST-Developer
 * from STEP Tools, Inc. (www.steptools.com) 
 */
/* OPTION: strings as raw bytes, not using required /X/ escapes */

FILE_DESCRIPTION(
/* description */ (''),
/* implementation_level */ '2;1');

FILE_NAME(
/* name */ '33.160003.270.316',
/* time_stamp */ '2019-06-18T15:14:38+02:00',
/* author */ ('Murat Coskun Bicak'),
/* organization */ ('Evac AG'),
/* preprocessor_version */ 'ST-DEVELOPER v16.7',
/* originating_system */ 'DEX',
/* authorisation */ $);

FILE_SCHEMA (('AUTOMOTIVE_DESIGN {1 0 10303 214 3 1 1}'));
ENDSEC;

DATA;
#10=PROPERTY_DEFINITION_REPRESENTATION(#14,#12);
#11=PROPERTY_DEFINITION_REPRESENTATION(#15,#13);
#12=REPRESENTATION('',(#16),#645);
#13=REPRESENTATION('',(#17),#645);
#14=PROPERTY_DEFINITION('pmi validation property','',#654);
#15=PROPERTY_DEFINITION('pmi validation property','',#654);
#16=VALUE_REPRESENTATION_ITEM('number of annotations',COUNT_MEASURE(0.));
#17=VALUE_REPRESENTATION_ITEM('number of views',COUNT_MEASURE(0.));
#18=TOROIDAL_SURFACE('',#405,85.,1.);
#19=TOROIDAL_SURFACE('',#409,93.,2.);
#20=TOROIDAL_SURFACE('',#423,79.1,0.4);
#21=CONICAL_SURFACE('',#400,83.,0.785398163397448);
#22=CONICAL_SURFACE('',#407,84.6579798566743,1.22173047639603);
#23=CONICAL_SURFACE('',#413,95.,0.785398163397448);
#24=CONICAL_SURFACE('',#417,77.,0.785398163397448);
#25=CONTEXT_DEPENDENT_SHAPE_REPRESENTATION(#35,#656);
#26=CONTEXT_DEPENDENT_SHAPE_REPRESENTATION(#36,#658);
#27=CONTEXT_DEPENDENT_SHAPE_REPRESENTATION(#37,#659);
#28=CONTEXT_DEPENDENT_SHAPE_REPRESENTATION(#38,#660);
#29=CONTEXT_DEPENDENT_SHAPE_REPRESENTATION(#39,#661);
#30=NEXT_ASSEMBLY_USAGE_OCCURRENCE('33.160003.270.316-Rohr',
'33.160003.270.316-Rohr','33.160003.270.316-Rohr',#662,#663,'');
#31=NEXT_ASSEMBLY_USAGE_OCCURRENCE('32.160003.210.316',
'32.160003.210.316','32.160003.210.316',#662,#664,'');
#32=NEXT_ASSEMBLY_USAGE_OCCURRENCE('32.160003.210.316',
'32.160003.210.316','32.160003.210.316',#662,#664,'');
#33=NEXT_ASSEMBLY_USAGE_OCCURRENCE('32.160003.210.316',
'32.160003.210.316','32.160003.210.316',#662,#664,'');
#34=NEXT_ASSEMBLY_USAGE_OCCURRENCE('32.160003.210.316',
'32.160003.210.316','32.160003.210.316',#662,#664,'');
#35=(
REPRESENTATION_RELATIONSHIP(' ',' ',#367,#368)
REPRESENTATION_RELATIONSHIP_WITH_TRANSFORMATION(#40)
SHAPE_REPRESENTATION_RELATIONSHIP()
);
#36=(
REPRESENTATION_RELATIONSHIP(' ',' ',#369,#368)
REPRESENTATION_RELATIONSHIP_WITH_TRANSFORMATION(#41)
SHAPE_REPRESENTATION_RELATIONSHIP()
);
#37=(
REPRESENTATION_RELATIONSHIP(' ',' ',#369,#368)
REPRESENTATION_RELATIONSHIP_WITH_TRANSFORMATION(#42)
SHAPE_REPRESENTATION_RELATIONSHIP()
);
#38=(
REPRESENTATION_RELATIONSHIP(' ',' ',#369,#368)
REPRESENTATION_RELATIONSHIP_WITH_TRANSFORMATION(#43)
SHAPE_REPRESENTATION_RELATIONSHIP()
);
#39=(
REPRESENTATION_RELATIONSHIP(' ',' ',#369,#368)
REPRESENTATION_RELATIONSHIP_WITH_TRANSFORMATION(#44)
SHAPE_REPRESENTATION_RELATIONSHIP()
);
#40=ITEM_DEFINED_TRANSFORMATION(' ',' ',#370,#399);
#41=ITEM_DEFINED_TRANSFORMATION(' ',' ',#370,#428);
#42=ITEM_DEFINED_TRANSFORMATION(' ',' ',#370,#429);
#43=ITEM_DEFINED_TRANSFORMATION(' ',' ',#370,#430);
#44=ITEM_DEFINED_TRANSFORMATION(' ',' ',#370,#431);
#45=SHAPE_REPRESENTATION_RELATIONSHIP('','',#367,#47);
#46=SHAPE_REPRESENTATION_RELATIONSHIP('','',#369,#48);
#47=ADVANCED_BREP_SHAPE_REPRESENTATION('',(#362),#646);
#48=ADVANCED_BREP_SHAPE_REPRESENTATION('',(#363),#647);
#49=PLANE('',#388);
#50=PLANE('',#389);
#51=PLANE('',#390);
#52=PLANE('',#392);
#53=PLANE('',#415);
#54=PLANE('',#421);
#55=PLANE('',#427);
#56=ELLIPSE('',#373,108.187337521542,76.5);
#57=ELLIPSE('',#374,108.187337521542,76.5);
#58=ELLIPSE('',#377,108.187337521542,76.5);
#59=ELLIPSE('',#378,108.187337521542,76.5);
#60=ELLIPSE('',#381,112.429978208661,79.5);
#61=ELLIPSE('',#382,112.429978208661,79.5);
#62=ELLIPSE('',#385,112.429978208661,79.5);
#63=ELLIPSE('',#396,112.429978208661,79.5);
#64=ORIENTED_EDGE('',*,*,#124,.F.);
#65=ORIENTED_EDGE('',*,*,#125,.F.);
#66=ORIENTED_EDGE('',*,*,#126,.T.);
#67=ORIENTED_EDGE('',*,*,#127,.F.);
#68=ORIENTED_EDGE('',*,*,#128,.F.);
#69=ORIENTED_EDGE('',*,*,#129,.T.);
#70=ORIENTED_EDGE('',*,*,#130,.T.);
#71=ORIENTED_EDGE('',*,*,#131,.F.);
#72=ORIENTED_EDGE('',*,*,#132,.F.);
#73=ORIENTED_EDGE('',*,*,#133,.F.);
#74=ORIENTED_EDGE('',*,*,#134,.F.);
#75=ORIENTED_EDGE('',*,*,#132,.T.);
#76=ORIENTED_EDGE('',*,*,#135,.T.);
#77=ORIENTED_EDGE('',*,*,#125,.T.);
#78=ORIENTED_EDGE('',*,*,#128,.T.);
#79=ORIENTED_EDGE('',*,*,#130,.F.);
#80=ORIENTED_EDGE('',*,*,#127,.T.);
#81=ORIENTED_EDGE('',*,*,#133,.T.);
#82=ORIENTED_EDGE('',*,*,#135,.F.);
#83=ORIENTED_EDGE('',*,*,#136,.F.);
#84=ORIENTED_EDGE('',*,*,#124,.T.);
#85=ORIENTED_EDGE('',*,*,#137,.T.);
#86=ORIENTED_EDGE('',*,*,#138,.F.);
#87=ORIENTED_EDGE('',*,*,#137,.F.);
#88=ORIENTED_EDGE('',*,*,#139,.T.);
#89=ORIENTED_EDGE('',*,*,#131,.T.);
#90=ORIENTED_EDGE('',*,*,#138,.T.);
#91=ORIENTED_EDGE('',*,*,#129,.F.);
#92=ORIENTED_EDGE('',*,*,#126,.F.);
#93=ORIENTED_EDGE('',*,*,#136,.T.);
#94=ORIENTED_EDGE('',*,*,#139,.F.);
#95=ORIENTED_EDGE('',*,*,#134,.T.);
#96=ORIENTED_EDGE('',*,*,#140,.T.);
#97=ORIENTED_EDGE('',*,*,#141,.F.);
#98=ORIENTED_EDGE('',*,*,#142,.T.);
#99=ORIENTED_EDGE('',*,*,#140,.F.);
#100=ORIENTED_EDGE('',*,*,#143,.T.);
#101=ORIENTED_EDGE('',*,*,#142,.F.);
#102=ORIENTED_EDGE('',*,*,#144,.T.);
#103=ORIENTED_EDGE('',*,*,#143,.F.);
#104=ORIENTED_EDGE('',*,*,#145,.T.);
#105=ORIENTED_EDGE('',*,*,#144,.F.);
#106=ORIENTED_EDGE('',*,*,#146,.T.);
#107=ORIENTED_EDGE('',*,*,#145,.F.);
#108=ORIENTED_EDGE('',*,*,#147,.T.);
#109=ORIENTED_EDGE('',*,*,#146,.F.);
#110=ORIENTED_EDGE('',*,*,#148,.T.);
#111=ORIENTED_EDGE('',*,*,#147,.F.);
#112=ORIENTED_EDGE('',*,*,#149,.T.);
#113=ORIENTED_EDGE('',*,*,#148,.F.);
#114=ORIENTED_EDGE('',*,*,#150,.T.);
#115=ORIENTED_EDGE('',*,*,#149,.F.);
#116=ORIENTED_EDGE('',*,*,#151,.T.);
#117=ORIENTED_EDGE('',*,*,#150,.F.);
#118=ORIENTED_EDGE('',*,*,#152,.T.);
#119=ORIENTED_EDGE('',*,*,#151,.F.);
#120=ORIENTED_EDGE('',*,*,#153,.T.);
#121=ORIENTED_EDGE('',*,*,#152,.F.);
#122=ORIENTED_EDGE('',*,*,#141,.T.);
#123=ORIENTED_EDGE('',*,*,#153,.F.);
#124=EDGE_CURVE('',#154,#154,#180,.T.);
#125=EDGE_CURVE('',#155,#156,#56,.T.);
#126=EDGE_CURVE('',#155,#156,#57,.F.);
#127=EDGE_CURVE('',#157,#157,#181,.T.);
#128=EDGE_CURVE('',#156,#155,#58,.F.);
#129=EDGE_CURVE('',#156,#155,#59,.T.);
#130=EDGE_CURVE('',#158,#158,#182,.T.);
#131=EDGE_CURVE('',#159,#160,#60,.T.);
#132=EDGE_CURVE('',#160,#159,#61,.T.);
#133=EDGE_CURVE('',#161,#161,#183,.T.);
#134=EDGE_CURVE('',#160,#159,#62,.T.);
#135=EDGE_CURVE('',#162,#162,#184,.T.);
#136=EDGE_CURVE('',#163,#163,#185,.T.);
#137=EDGE_CURVE('',#164,#164,#186,.T.);
#138=EDGE_CURVE('',#165,#165,#187,.T.);
#139=EDGE_CURVE('',#160,#159,#63,.T.);
#140=EDGE_CURVE('',#166,#166,#188,.T.);
#141=EDGE_CURVE('',#167,#167,#189,.T.);
#142=EDGE_CURVE('',#168,#168,#190,.T.);
#143=EDGE_CURVE('',#169,#169,#191,.T.);
#144=EDGE_CURVE('',#170,#170,#192,.T.);
#145=EDGE_CURVE('',#171,#171,#193,.T.);
#146=EDGE_CURVE('',#172,#172,#194,.T.);
#147=EDGE_CURVE('',#173,#173,#195,.T.);
#148=EDGE_CURVE('',#174,#174,#196,.T.);
#149=EDGE_CURVE('',#175,#175,#197,.T.);
#150=EDGE_CURVE('',#176,#176,#198,.T.);
#151=EDGE_CURVE('',#177,#177,#199,.T.);
#152=EDGE_CURVE('',#178,#178,#200,.T.);
#153=EDGE_CURVE('',#179,#179,#201,.T.);
#154=VERTEX_POINT('',#559);
#155=VERTEX_POINT('',#561);
#156=VERTEX_POINT('',#562);
#157=VERTEX_POINT('',#566);
#158=VERTEX_POINT('',#571);
#159=VERTEX_POINT('',#573);
#160=VERTEX_POINT('',#574);
#161=VERTEX_POINT('',#578);
#162=VERTEX_POINT('',#582);
#163=VERTEX_POINT('',#587);
#164=VERTEX_POINT('',#590);
#165=VERTEX_POINT('',#592);
#166=VERTEX_POINT('',#600);
#167=VERTEX_POINT('',#602);
#168=VERTEX_POINT('',#605);
#169=VERTEX_POINT('',#608);
#170=VERTEX_POINT('',#611);
#171=VERTEX_POINT('',#614);
#172=VERTEX_POINT('',#617);
#173=VERTEX_POINT('',#620);
#174=VERTEX_POINT('',#623);
#175=VERTEX_POINT('',#626);
#176=VERTEX_POINT('',#629);
#177=VERTEX_POINT('',#632);
#178=VERTEX_POINT('',#635);
#179=VERTEX_POINT('',#638);
#180=CIRCLE('',#372,76.5);
#181=CIRCLE('',#376,76.5);
#182=CIRCLE('',#380,79.5);
#183=CIRCLE('',#384,79.5);
#184=CIRCLE('',#387,76.5);
#185=CIRCLE('',#391,79.5);
#186=CIRCLE('',#393,79.5);
#187=CIRCLE('',#394,76.5);
#188=CIRCLE('',#401,84.);
#189=CIRCLE('',#402,83.);
#190=CIRCLE('',#404,84.);
#191=CIRCLE('',#406,84.6579798566743);
#192=CIRCLE('',#408,93.6840402866514);
#193=CIRCLE('',#410,95.);
#194=CIRCLE('',#412,95.);
#195=CIRCLE('',#414,94.5);
#196=CIRCLE('',#416,77.);
#197=CIRCLE('',#418,76.5);
#198=CIRCLE('',#420,76.5);
#199=CIRCLE('',#422,79.1);
#200=CIRCLE('',#424,79.5);
#201=CIRCLE('',#426,79.5);
#202=EDGE_LOOP('',(#64));
#203=EDGE_LOOP('',(#65,#66));
#204=EDGE_LOOP('',(#67));
#205=EDGE_LOOP('',(#68,#69));
#206=EDGE_LOOP('',(#70));
#207=EDGE_LOOP('',(#71,#72));
#208=EDGE_LOOP('',(#73));
#209=EDGE_LOOP('',(#74,#75));
#210=EDGE_LOOP('',(#76));
#211=EDGE_LOOP('',(#77,#78));
#212=EDGE_LOOP('',(#79));
#213=EDGE_LOOP('',(#80));
#214=EDGE_LOOP('',(#81));
#215=EDGE_LOOP('',(#82));
#216=EDGE_LOOP('',(#83));
#217=EDGE_LOOP('',(#84));
#218=EDGE_LOOP('',(#85));
#219=EDGE_LOOP('',(#86));
#220=EDGE_LOOP('',(#87));
#221=EDGE_LOOP('',(#88,#89));
#222=EDGE_LOOP('',(#90));
#223=EDGE_LOOP('',(#91,#92));
#224=EDGE_LOOP('',(#93));
#225=EDGE_LOOP('',(#94,#95));
#226=EDGE_LOOP('',(#96));
#227=EDGE_LOOP('',(#97));
#228=EDGE_LOOP('',(#98));
#229=EDGE_LOOP('',(#99));
#230=EDGE_LOOP('',(#100));
#231=EDGE_LOOP('',(#101));
#232=EDGE_LOOP('',(#102));
#233=EDGE_LOOP('',(#103));
#234=EDGE_LOOP('',(#104));
#235=EDGE_LOOP('',(#105));
#236=EDGE_LOOP('',(#106));
#237=EDGE_LOOP('',(#107));
#238=EDGE_LOOP('',(#108));
#239=EDGE_LOOP('',(#109));
#240=EDGE_LOOP('',(#110));
#241=EDGE_LOOP('',(#111));
#242=EDGE_LOOP('',(#112));
#243=EDGE_LOOP('',(#113));
#244=EDGE_LOOP('',(#114));
#245=EDGE_LOOP('',(#115));
#246=EDGE_LOOP('',(#116));
#247=EDGE_LOOP('',(#117));
#248=EDGE_LOOP('',(#118));
#249=EDGE_LOOP('',(#119));
#250=EDGE_LOOP('',(#120));
#251=EDGE_LOOP('',(#121));
#252=EDGE_LOOP('',(#122));
#253=EDGE_LOOP('',(#123));
#254=FACE_BOUND('',#202,.T.);
#255=FACE_BOUND('',#203,.T.);
#256=FACE_BOUND('',#204,.T.);
#257=FACE_BOUND('',#205,.T.);
#258=FACE_BOUND('',#206,.T.);
#259=FACE_BOUND('',#207,.T.);
#260=FACE_BOUND('',#208,.T.);
#261=FACE_BOUND('',#209,.T.);
#262=FACE_BOUND('',#210,.T.);
#263=FACE_BOUND('',#211,.T.);
#264=FACE_BOUND('',#212,.T.);
#265=FACE_BOUND('',#213,.T.);
#266=FACE_BOUND('',#214,.T.);
#267=FACE_BOUND('',#215,.T.);
#268=FACE_BOUND('',#216,.T.);
#269=FACE_BOUND('',#217,.T.);
#270=FACE_BOUND('',#218,.T.);
#271=FACE_BOUND('',#219,.T.);
#272=FACE_BOUND('',#220,.T.);
#273=FACE_BOUND('',#221,.T.);
#274=FACE_BOUND('',#222,.T.);
#275=FACE_BOUND('',#223,.T.);
#276=FACE_BOUND('',#224,.T.);
#277=FACE_BOUND('',#225,.T.);
#278=FACE_BOUND('',#226,.T.);
#279=FACE_BOUND('',#227,.T.);
#280=FACE_BOUND('',#228,.T.);
#281=FACE_BOUND('',#229,.T.);
#282=FACE_BOUND('',#230,.T.);
#283=FACE_BOUND('',#231,.T.);
#284=FACE_BOUND('',#232,.T.);
#285=FACE_BOUND('',#233,.T.);
#286=FACE_BOUND('',#234,.T.);
#287=FACE_BOUND('',#235,.T.);
#288=FACE_BOUND('',#236,.T.);
#289=FACE_BOUND('',#237,.T.);
#290=FACE_BOUND('',#238,.T.);
#291=FACE_BOUND('',#239,.T.);
#292=FACE_BOUND('',#240,.T.);
#293=FACE_BOUND('',#241,.T.);
#294=FACE_BOUND('',#242,.T.);
#295=FACE_BOUND('',#243,.T.);
#296=FACE_BOUND('',#244,.T.);
#297=FACE_BOUND('',#245,.T.);
#298=FACE_BOUND('',#246,.T.);
#299=FACE_BOUND('',#247,.T.);
#300=FACE_BOUND('',#248,.T.);
#301=FACE_BOUND('',#249,.T.);
#302=FACE_BOUND('',#250,.T.);
#303=FACE_BOUND('',#251,.T.);
#304=FACE_BOUND('',#252,.T.);
#305=FACE_BOUND('',#253,.T.);
#306=CYLINDRICAL_SURFACE('',#371,76.5);
#307=CYLINDRICAL_SURFACE('',#375,76.5);
#308=CYLINDRICAL_SURFACE('',#379,79.5);
#309=CYLINDRICAL_SURFACE('',#383,79.5);
#310=CYLINDRICAL_SURFACE('',#386,76.5);
#311=CYLINDRICAL_SURFACE('',#395,79.5);
#312=CYLINDRICAL_SURFACE('',#397,76.5);
#313=CYLINDRICAL_SURFACE('',#398,79.5);
#314=CYLINDRICAL_SURFACE('',#403,84.);
#315=CYLINDRICAL_SURFACE('',#411,95.);
#316=CYLINDRICAL_SURFACE('',#419,76.5);
#317=CYLINDRICAL_SURFACE('',#425,79.5);
#318=ADVANCED_FACE('',(#254,#255),#306,.F.);
#319=ADVANCED_FACE('',(#256,#257),#307,.F.);
#320=ADVANCED_FACE('',(#258,#259),#308,.T.);
#321=ADVANCED_FACE('',(#260,#261),#309,.T.);
#322=ADVANCED_FACE('',(#262,#263),#310,.F.);
#323=ADVANCED_FACE('',(#264,#265),#49,.F.);
#324=ADVANCED_FACE('',(#266,#267),#50,.F.);
#325=ADVANCED_FACE('',(#268,#269),#51,.F.);
#326=ADVANCED_FACE('',(#270,#271),#52,.F.);
#327=ADVANCED_FACE('',(#272,#273),#311,.T.);
#328=ADVANCED_FACE('',(#274,#275),#312,.F.);
#329=ADVANCED_FACE('',(#276,#277),#313,.T.);
#330=ADVANCED_FACE('',(#278,#279),#21,.T.);
#331=ADVANCED_FACE('',(#280,#281),#314,.T.);
#332=ADVANCED_FACE('',(#282,#283),#18,.F.);
#333=ADVANCED_FACE('',(#284,#285),#22,.T.);
#334=ADVANCED_FACE('',(#286,#287),#19,.T.);
#335=ADVANCED_FACE('',(#288,#289),#315,.T.);
#336=ADVANCED_FACE('',(#290,#291),#23,.T.);
#337=ADVANCED_FACE('',(#292,#293),#53,.T.);
#338=ADVANCED_FACE('',(#294,#295),#24,.F.);
#339=ADVANCED_FACE('',(#296,#297),#316,.F.);
#340=ADVANCED_FACE('',(#298,#299),#54,.T.);
#341=ADVANCED_FACE('',(#300,#301),#20,.F.);
#342=ADVANCED_FACE('',(#302,#303),#317,.F.);
#343=ADVANCED_FACE('',(#304,#305),#55,.T.);
#344=CLOSED_SHELL('',(#318,#319,#320,#321,#322,#323,#324,#325,#326,#327,
#328,#329));
#345=CLOSED_SHELL('',(#330,#331,#332,#333,#334,#335,#336,#337,#338,#339,
#340,#341,#342,#343));
#346=STYLED_ITEM('',(#348),#362);
#347=STYLED_ITEM('',(#349),#363);
#348=PRESENTATION_STYLE_ASSIGNMENT((#350));
#349=PRESENTATION_STYLE_ASSIGNMENT((#351));
#350=SURFACE_STYLE_USAGE(.BOTH.,#352);
#351=SURFACE_STYLE_USAGE(.BOTH.,#353);
#352=SURFACE_SIDE_STYLE('',(#354));
#353=SURFACE_SIDE_STYLE('',(#355));
#354=SURFACE_STYLE_FILL_AREA(#356);
#355=SURFACE_STYLE_FILL_AREA(#357);
#356=FILL_AREA_STYLE('',(#358));
#357=FILL_AREA_STYLE('',(#359));
#358=FILL_AREA_STYLE_COLOUR('',#360);
#359=FILL_AREA_STYLE_COLOUR('',#361);
#360=COLOUR_RGB('',0.506983280181885,0.531564235687256,0.550000011920929);
#361=COLOUR_RGB('',0.752941191196442,0.752941191196442,0.752941191196442);
#362=MANIFOLD_SOLID_BREP('',#344);
#363=MANIFOLD_SOLID_BREP('',#345);
#364=SHAPE_DEFINITION_REPRESENTATION(#655,#367);
#365=SHAPE_DEFINITION_REPRESENTATION(#654,#368);
#366=SHAPE_DEFINITION_REPRESENTATION(#657,#369);
#367=SHAPE_REPRESENTATION('33.160003.270.316-Rohr',(#370),#646);
#368=SHAPE_REPRESENTATION('33.160003.270.316',(#370,#399,#428,#429,#430,
#431),#645);
#369=SHAPE_REPRESENTATION('32.160003.210.316',(#370),#647);
#370=AXIS2_PLACEMENT_3D('',#556,#432,#433);
#371=AXIS2_PLACEMENT_3D('',#557,#434,#435);
#372=AXIS2_PLACEMENT_3D('',#558,#436,#437);
#373=AXIS2_PLACEMENT_3D('',#560,#438,#439);
#374=AXIS2_PLACEMENT_3D('',#563,#440,#441);
#375=AXIS2_PLACEMENT_3D('',#564,#442,#443);
#376=AXIS2_PLACEMENT_3D('',#565,#444,#445);
#377=AXIS2_PLACEMENT_3D('',#567,#446,#447);
#378=AXIS2_PLACEMENT_3D('',#568,#448,#449);
#379=AXIS2_PLACEMENT_3D('',#569,#450,#451);
#380=AXIS2_PLACEMENT_3D('',#570,#452,#453);
#381=AXIS2_PLACEMENT_3D('',#572,#454,#455);
#382=AXIS2_PLACEMENT_3D('',#575,#456,#457);
#383=AXIS2_PLACEMENT_3D('',#576,#458,#459);
#384=AXIS2_PLACEMENT_3D('',#577,#460,#461);
#385=AXIS2_PLACEMENT_3D('',#579,#462,#463);
#386=AXIS2_PLACEMENT_3D('',#580,#464,#465);
#387=AXIS2_PLACEMENT_3D('',#581,#466,#467);
#388=AXIS2_PLACEMENT_3D('',#583,#468,#469);
#389=AXIS2_PLACEMENT_3D('',#584,#470,#471);
#390=AXIS2_PLACEMENT_3D('',#585,#472,#473);
#391=AXIS2_PLACEMENT_3D('',#586,#474,#475);
#392=AXIS2_PLACEMENT_3D('',#588,#476,#477);
#393=AXIS2_PLACEMENT_3D('',#589,#478,#479);
#394=AXIS2_PLACEMENT_3D('',#591,#480,#481);
#395=AXIS2_PLACEMENT_3D('',#593,#482,#483);
#396=AXIS2_PLACEMENT_3D('',#594,#484,#485);
#397=AXIS2_PLACEMENT_3D('',#595,#486,#487);
#398=AXIS2_PLACEMENT_3D('',#596,#488,#489);
#399=AXIS2_PLACEMENT_3D('',#597,#490,#491);
#400=AXIS2_PLACEMENT_3D('',#598,#492,#493);
#401=AXIS2_PLACEMENT_3D('',#599,#494,#495);
#402=AXIS2_PLACEMENT_3D('',#601,#496,#497);
#403=AXIS2_PLACEMENT_3D('',#603,#498,#499);
#404=AXIS2_PLACEMENT_3D('',#604,#500,#501);
#405=AXIS2_PLACEMENT_3D('',#606,#502,#503);
#406=AXIS2_PLACEMENT_3D('',#607,#504,#505);
#407=AXIS2_PLACEMENT_3D('',#609,#506,#507);
#408=AXIS2_PLACEMENT_3D('',#610,#508,#509);
#409=AXIS2_PLACEMENT_3D('',#612,#510,#511);
#410=AXIS2_PLACEMENT_3D('',#613,#512,#513);
#411=AXIS2_PLACEMENT_3D('',#615,#514,#515);
#412=AXIS2_PLACEMENT_3D('',#616,#516,#517);
#413=AXIS2_PLACEMENT_3D('',#618,#518,#519);
#414=AXIS2_PLACEMENT_3D('',#619,#520,#521);
#415=AXIS2_PLACEMENT_3D('',#621,#522,#523);
#416=AXIS2_PLACEMENT_3D('',#622,#524,#525);
#417=AXIS2_PLACEMENT_3D('',#624,#526,#527);
#418=AXIS2_PLACEMENT_3D('',#625,#528,#529);
#419=AXIS2_PLACEMENT_3D('',#627,#530,#531);
#420=AXIS2_PLACEMENT_3D('',#628,#532,#533);
#421=AXIS2_PLACEMENT_3D('',#630,#534,#535);
#422=AXIS2_PLACEMENT_3D('',#631,#536,#537);
#423=AXIS2_PLACEMENT_3D('',#633,#538,#539);
#424=AXIS2_PLACEMENT_3D('',#634,#540,#541);
#425=AXIS2_PLACEMENT_3D('',#636,#542,#543);
#426=AXIS2_PLACEMENT_3D('',#637,#544,#545);
#427=AXIS2_PLACEMENT_3D('',#639,#546,#547);
#428=AXIS2_PLACEMENT_3D('',#640,#548,#549);
#429=AXIS2_PLACEMENT_3D('',#641,#550,#551);
#430=AXIS2_PLACEMENT_3D('',#642,#552,#553);
#431=AXIS2_PLACEMENT_3D('',#643,#554,#555);
#432=DIRECTION('',(0.,0.,1.));
#433=DIRECTION('',(1.,0.,0.));
#434=DIRECTION('',(-1.,0.,0.));
#435=DIRECTION('',(0.,0.,1.));
#436=DIRECTION('',(1.,0.,0.));
#437=DIRECTION('',(0.,0.,-1.));
#438=DIRECTION('',(-0.707106781186547,0.,0.707106781186547));
#439=DIRECTION('',(-0.707106781186547,0.,-0.707106781186547));
#440=DIRECTION('',(-0.707106781186547,0.,-0.707106781186547));
#441=DIRECTION('',(-0.707106781186547,0.,0.707106781186547));
#442=DIRECTION('',(-1.,0.,0.));
#443=DIRECTION('',(0.,0.,1.));
#444=DIRECTION('',(-1.,0.,0.));
#445=DIRECTION('',(0.,0.,1.));
#446=DIRECTION('',(-0.707106781186547,0.,-0.707106781186547));
#447=DIRECTION('',(-0.707106781186547,0.,0.707106781186547));
#448=DIRECTION('',(-0.707106781186547,0.,0.707106781186547));
#449=DIRECTION('',(-0.707106781186547,0.,-0.707106781186547));
#450=DIRECTION('',(-1.,0.,0.));
#451=DIRECTION('',(0.,0.,1.));
#452=DIRECTION('',(-1.,0.,0.));
#453=DIRECTION('',(0.,0.,1.));
#454=DIRECTION('',(-0.707106781186548,0.,0.707106781186547));
#455=DIRECTION('',(-0.707106781186547,0.,-0.707106781186548));
#456=DIRECTION('',(-0.707106781186548,0.,-0.707106781186547));
#457=DIRECTION('',(-0.707106781186547,0.,0.707106781186548));
#458=DIRECTION('',(2.22044604925031E-16,0.,1.));
#459=DIRECTION('',(-1.,0.,-2.22044604925031E-16));
#460=DIRECTION('',(-2.22044604925031E-16,0.,-1.));
#461=DIRECTION('',(-1.,0.,-2.22044604925031E-16));
#462=DIRECTION('',(-0.707106781186547,0.,0.707106781186548));
#463=DIRECTION('',(0.707106781186548,0.,0.707106781186547));
#464=DIRECTION('',(2.22044604925031E-16,0.,1.));
#465=DIRECTION('',(-1.,0.,-2.22044604925031E-16));
#466=DIRECTION('',(-2.22044604925031E-16,0.,-1.));
#467=DIRECTION('',(-1.,0.,-2.22044604925031E-16));
#468=DIRECTION('',(-1.,0.,0.));
#469=DIRECTION('',(0.,0.,1.));
#470=DIRECTION('',(2.22044604925031E-16,0.,1.));
#471=DIRECTION('',(-1.,0.,-2.22044604925031E-16));
#472=DIRECTION('',(1.,0.,0.));
#473=DIRECTION('',(0.,0.,-1.));
#474=DIRECTION('',(1.,0.,0.));
#475=DIRECTION('',(0.,0.,-1.));
#476=DIRECTION('',(2.22044604925031E-16,0.,-1.));
#477=DIRECTION('',(1.,0.,-2.22044604925031E-16));
#478=DIRECTION('',(-2.22044604925031E-16,0.,1.));
#479=DIRECTION('',(1.,0.,-2.22044604925031E-16));
#480=DIRECTION('',(-2.22044604925031E-16,0.,1.));
#481=DIRECTION('',(1.,0.,-2.22044604925031E-16));
#482=DIRECTION('',(2.22044604925031E-16,0.,-1.));
#483=DIRECTION('',(1.,0.,-2.22044604925031E-16));
#484=DIRECTION('',(0.707106781186547,0.,0.707106781186547));
#485=DIRECTION('',(0.707106781186548,0.,-0.707106781186548));
#486=DIRECTION('',(2.22044604925031E-16,0.,-1.));
#487=DIRECTION('',(1.,0.,-2.22044604925031E-16));
#488=DIRECTION('',(1.,0.,0.));
#489=DIRECTION('',(0.,0.,-1.));
#490=DIRECTION('',(0.,0.,1.));
#491=DIRECTION('',(1.,0.,0.));
#492=DIRECTION('',(1.,0.,0.));
#493=DIRECTION('',(0.,0.,-1.));
#494=DIRECTION('',(-1.,0.,0.));
#495=DIRECTION('',(0.,0.,1.));
#496=DIRECTION('',(-1.,0.,0.));
#497=DIRECTION('',(0.,0.,1.));
#498=DIRECTION('',(-1.,0.,0.));
#499=DIRECTION('',(0.,0.,1.));
#500=DIRECTION('',(-1.,0.,0.));
#501=DIRECTION('',(0.,0.,1.));
#502=DIRECTION('',(-1.,0.,0.));
#503=DIRECTION('',(0.,0.,1.));
#504=DIRECTION('',(-1.,0.,0.));
#505=DIRECTION('',(0.,0.,1.));
#506=DIRECTION('',(1.,0.,0.));
#507=DIRECTION('',(0.,0.,-1.));
#508=DIRECTION('',(-1.,0.,0.));
#509=DIRECTION('',(0.,0.,1.));
#510=DIRECTION('',(-1.,0.,0.));
#511=DIRECTION('',(0.,0.,1.));
#512=DIRECTION('',(-1.,0.,0.));
#513=DIRECTION('',(0.,0.,1.));
#514=DIRECTION('',(-1.,0.,0.));
#515=DIRECTION('',(0.,0.,1.));
#516=DIRECTION('',(-1.,0.,0.));
#517=DIRECTION('',(0.,0.,1.));
#518=DIRECTION('',(-1.,0.,0.));
#519=DIRECTION('',(0.,0.,1.));
#520=DIRECTION('',(-1.,0.,0.));
#521=DIRECTION('',(0.,0.,1.));
#522=DIRECTION('',(1.,0.,0.));
#523=DIRECTION('',(0.,0.,-1.));
#524=DIRECTION('',(-1.,0.,0.));
#525=DIRECTION('',(0.,0.,1.));
#526=DIRECTION('',(1.,0.,0.));
#527=DIRECTION('',(0.,0.,-1.));
#528=DIRECTION('',(-1.,0.,0.));
#529=DIRECTION('',(0.,0.,1.));
#530=DIRECTION('',(-1.,0.,0.));
#531=DIRECTION('',(0.,0.,1.));
#532=DIRECTION('',(-1.,0.,0.));
#533=DIRECTION('',(0.,0.,1.));
#534=DIRECTION('',(-1.,0.,0.));
#535=DIRECTION('',(0.,0.,1.));
#536=DIRECTION('',(-1.,0.,0.));
#537=DIRECTION('',(0.,0.,1.));
#538=DIRECTION('',(-1.,0.,0.));
#539=DIRECTION('',(0.,0.,1.));
#540=DIRECTION('',(-1.,0.,0.));
#541=DIRECTION('',(0.,0.,1.));
#542=DIRECTION('',(-1.,0.,0.));
#543=DIRECTION('',(0.,0.,1.));
#544=DIRECTION('',(-1.,0.,0.));
#545=DIRECTION('',(0.,0.,1.));
#546=DIRECTION('',(-1.,0.,0.));
#547=DIRECTION('',(0.,0.,1.));
#548=DIRECTION('',(1.38777878078145E-17,5.55111512312578E-17,1.));
#549=DIRECTION('',(1.,-5.55111512312578E-17,-1.38777878078145E-17));
#550=DIRECTION('',(5.29922381929104E-18,0.924224592736303,0.381849318686592));
#551=DIRECTION('',(-1.,-1.07852076885685E-32,1.38777878078145E-17));
#552=DIRECTION('',(0.381849318686592,0.924224592736303,1.3155063569727E-16));
#553=DIRECTION('',(-3.44509284839767E-16,-2.46519032881566E-32,1.));
#554=DIRECTION('',(0.706748229078383,-0.707465151576083,2.43481326961565E-16));
#555=DIRECTION('',(3.44509284839767E-16,-4.93038065763132E-32,-1.));
#556=CARTESIAN_POINT('',(0.,0.,0.));
#557=CARTESIAN_POINT('',(0.,0.,0.));
#558=CARTESIAN_POINT('',(-123.,0.,0.));
#559=CARTESIAN_POINT('',(-123.,0.,-76.5));
#560=CARTESIAN_POINT('',(0.,0.,0.));
#561=CARTESIAN_POINT('',(0.,76.5,0.));
#562=CARTESIAN_POINT('',(0.,-76.5,0.));
#563=CARTESIAN_POINT('',(0.,0.,0.));
#564=CARTESIAN_POINT('',(0.,0.,0.));
#565=CARTESIAN_POINT('',(123.,0.,0.));
#566=CARTESIAN_POINT('',(123.,0.,76.5));
#567=CARTESIAN_POINT('',(0.,0.,0.));
#568=CARTESIAN_POINT('',(0.,0.,0.));
#569=CARTESIAN_POINT('',(0.,0.,0.));
#570=CARTESIAN_POINT('',(123.,0.,0.));
#571=CARTESIAN_POINT('',(123.,0.,79.5));
#572=CARTESIAN_POINT('',(0.,0.,0.));
#573=CARTESIAN_POINT('',(0.,-79.5,0.));
#574=CARTESIAN_POINT('',(0.,79.5,0.));
#575=CARTESIAN_POINT('',(0.,0.,0.));
#576=CARTESIAN_POINT('',(0.,0.,0.));
#577=CARTESIAN_POINT('',(-2.73114864057788E-14,0.,-123.));
#578=CARTESIAN_POINT('',(-79.5,0.,-123.));
#579=CARTESIAN_POINT('',(0.,0.,0.));
#580=CARTESIAN_POINT('',(0.,0.,0.));
#581=CARTESIAN_POINT('',(-2.73114864057788E-14,0.,-123.));
#582=CARTESIAN_POINT('',(-76.5,0.,-123.));
#583=CARTESIAN_POINT('',(123.,0.,76.5));
#584=CARTESIAN_POINT('',(-76.5,0.,-123.));
#585=CARTESIAN_POINT('',(-123.,0.,-76.5));
#586=CARTESIAN_POINT('',(-123.,0.,0.));
#587=CARTESIAN_POINT('',(-123.,0.,-79.5));
#588=CARTESIAN_POINT('',(76.5,0.,123.));
#589=CARTESIAN_POINT('',(-2.73114864057788E-14,0.,123.));
#590=CARTESIAN_POINT('',(79.5,0.,123.));
#591=CARTESIAN_POINT('',(-2.73114864057788E-14,0.,123.));
#592=CARTESIAN_POINT('',(76.5,0.,123.));
#593=CARTESIAN_POINT('',(0.,0.,0.));
#594=CARTESIAN_POINT('',(0.,0.,0.));
#595=CARTESIAN_POINT('',(0.,0.,0.));
#596=CARTESIAN_POINT('',(0.,0.,0.));
#597=CARTESIAN_POINT('',(0.,0.,0.));
#598=CARTESIAN_POINT('',(-10.1892413793103,0.,0.));
#599=CARTESIAN_POINT('',(-9.18924137931033,0.,0.));
#600=CARTESIAN_POINT('',(-9.18924137931033,0.,84.));
#601=CARTESIAN_POINT('',(-10.1892413793103,0.,0.));
#602=CARTESIAN_POINT('',(-10.1892413793103,0.,83.));
#603=CARTESIAN_POINT('',(-60.,0.,0.));
#604=CARTESIAN_POINT('',(-3.03312149444827,0.,0.));
#605=CARTESIAN_POINT('',(-3.03312149444827,0.,84.));
#606=CARTESIAN_POINT('',(-3.03312149444827,0.,0.));
#607=CARTESIAN_POINT('',(-2.09342887366236,0.,0.));
#608=CARTESIAN_POINT('',(-2.09342887366236,0.,84.6579798566743));
#609=CARTESIAN_POINT('',(-2.09342887366236,0.,0.));
#610=CARTESIAN_POINT('',(1.19178845553726,0.,0.));
#611=CARTESIAN_POINT('',(1.19178845553726,0.,93.6840402866514));
#612=CARTESIAN_POINT('',(3.07117369710907,0.,0.));
#613=CARTESIAN_POINT('',(3.07117369710908,0.,0.));
#614=CARTESIAN_POINT('',(3.07117369710908,0.,95.));
#615=CARTESIAN_POINT('',(-60.,0.,0.));
#616=CARTESIAN_POINT('',(9.31075862068967,0.,0.));
#617=CARTESIAN_POINT('',(9.31075862068967,0.,95.));
#618=CARTESIAN_POINT('',(9.31075862068967,0.,0.));
#619=CARTESIAN_POINT('',(9.81075862068967,0.,0.));
#620=CARTESIAN_POINT('',(9.81075862068967,0.,94.5));
#621=CARTESIAN_POINT('',(9.81075862068966,0.,94.5));
#622=CARTESIAN_POINT('',(9.81075862068967,0.,0.));
#623=CARTESIAN_POINT('',(9.81075862068967,0.,77.));
#624=CARTESIAN_POINT('',(9.81075862068967,0.,0.));
#625=CARTESIAN_POINT('',(9.31075862068967,0.,0.));
#626=CARTESIAN_POINT('',(9.31075862068967,0.,76.5));
#627=CARTESIAN_POINT('',(-60.,0.,0.));
#628=CARTESIAN_POINT('',(-5.18924137931034,0.,0.));
#629=CARTESIAN_POINT('',(-5.18924137931034,0.,76.5));
#630=CARTESIAN_POINT('',(-5.18924137931034,0.,76.5));
#631=CARTESIAN_POINT('',(-5.18924137931034,0.,0.));
#632=CARTESIAN_POINT('',(-5.18924137931034,0.,79.1));
#633=CARTESIAN_POINT('',(-5.58924137931034,0.,0.));
#634=CARTESIAN_POINT('',(-5.58924137931033,0.,0.));
#635=CARTESIAN_POINT('',(-5.58924137931033,0.,79.5));
#636=CARTESIAN_POINT('',(-60.,0.,0.));
#637=CARTESIAN_POINT('',(-10.1892413793103,0.,0.));
#638=CARTESIAN_POINT('',(-10.1892413793103,0.,79.5));
#639=CARTESIAN_POINT('',(-10.1892413793103,0.,79.5));
#640=CARTESIAN_POINT('',(128.18924137931,-2.88060762982397E-16,-7.20151907455993E-17));
#641=CARTESIAN_POINT('',(-128.18924137931,-1.72397560219124E-31,7.20151907455996E-17));
#642=CARTESIAN_POINT('',(-2.9099228242226E-14,-1.27924676621658E-31,128.18924137931));
#643=CARTESIAN_POINT('',(2.9099228242226E-14,-1.39599988032056E-30,-128.18924137931));
#644=MECHANICAL_DESIGN_GEOMETRIC_PRESENTATION_REPRESENTATION('',(#346,#347),
#645);
#645=(
GEOMETRIC_REPRESENTATION_CONTEXT(3)
GLOBAL_UNCERTAINTY_ASSIGNED_CONTEXT((#648))
GLOBAL_UNIT_ASSIGNED_CONTEXT((#653,#652,#651))
REPRESENTATION_CONTEXT('33.160003.270.316','TOP_LEVEL_ASSEMBLY_PART')
);
#646=(
GEOMETRIC_REPRESENTATION_CONTEXT(3)
GLOBAL_UNCERTAINTY_ASSIGNED_CONTEXT((#649))
GLOBAL_UNIT_ASSIGNED_CONTEXT((#653,#652,#651))
REPRESENTATION_CONTEXT('33.160003.270.316-Rohr','COMPONENT_PART')
);
#647=(
GEOMETRIC_REPRESENTATION_CONTEXT(3)
GLOBAL_UNCERTAINTY_ASSIGNED_CONTEXT((#650))
GLOBAL_UNIT_ASSIGNED_CONTEXT((#653,#652,#651))
REPRESENTATION_CONTEXT('32.160003.210.316','COMPONENT_PART')
);
#648=UNCERTAINTY_MEASURE_WITH_UNIT(LENGTH_MEASURE(0.005),#653,
'DISTANCE_ACCURACY_VALUE','Maximum Tolerance applied to model');
#649=UNCERTAINTY_MEASURE_WITH_UNIT(LENGTH_MEASURE(0.005),#653,
'DISTANCE_ACCURACY_VALUE','Maximum Tolerance applied to model');
#650=UNCERTAINTY_MEASURE_WITH_UNIT(LENGTH_MEASURE(0.005),#653,
'DISTANCE_ACCURACY_VALUE','Maximum Tolerance applied to model');
#651=(
NAMED_UNIT(*)
SI_UNIT($,.STERADIAN.)
SOLID_ANGLE_UNIT()
);
#652=(
NAMED_UNIT(*)
PLANE_ANGLE_UNIT()
SI_UNIT($,.RADIAN.)
);
#653=(
LENGTH_UNIT()
NAMED_UNIT(*)
SI_UNIT(.MILLI.,.METRE.)
);
#654=PRODUCT_DEFINITION_SHAPE('','',#662);
#655=PRODUCT_DEFINITION_SHAPE('','',#663);
#656=PRODUCT_DEFINITION_SHAPE(' ','NAUO PRDDFN',#30);
#657=PRODUCT_DEFINITION_SHAPE('','',#664);
#658=PRODUCT_DEFINITION_SHAPE(' ','NAUO PRDDFN',#31);
#659=PRODUCT_DEFINITION_SHAPE(' ','NAUO PRDDFN',#32);
#660=PRODUCT_DEFINITION_SHAPE(' ','NAUO PRDDFN',#33);
#661=PRODUCT_DEFINITION_SHAPE(' ','NAUO PRDDFN',#34);
#662=PRODUCT_DEFINITION('','',#668,#665);
#663=PRODUCT_DEFINITION('','',#669,#666);
#664=PRODUCT_DEFINITION('','',#670,#667);
#665=PRODUCT_DEFINITION_CONTEXT('',#684,'design');
#666=PRODUCT_DEFINITION_CONTEXT('',#684,'design');
#667=PRODUCT_DEFINITION_CONTEXT('',#684,'design');
#668=PRODUCT_DEFINITION_FORMATION_WITH_SPECIFIED_SOURCE('','',#674,
 .NOT_KNOWN.);
#669=PRODUCT_DEFINITION_FORMATION_WITH_SPECIFIED_SOURCE('','',#675,
 .NOT_KNOWN.);
#670=PRODUCT_DEFINITION_FORMATION_WITH_SPECIFIED_SOURCE('','',#676,
 .NOT_KNOWN.);
#671=PRODUCT_RELATED_PRODUCT_CATEGORY('','',(#674));
#672=PRODUCT_RELATED_PRODUCT_CATEGORY('','',(#675));
#673=PRODUCT_RELATED_PRODUCT_CATEGORY('','',(#676));
#674=PRODUCT('33.160003.270.316','33.160003.270.316',
'33.160003.270.316',(#680));
#675=PRODUCT('33.160003.270.316-Rohr','33.160003.270.316-Rohr',
'33.160003.270.316-Rohr',(#681));
#676=PRODUCT('32.160003.210.316','32.160003.210.316',
'32.160003.210.316',(#682));
#677=PRODUCT_CATEGORY('','');
#678=PRODUCT_CATEGORY('','');
#679=PRODUCT_CATEGORY('','');
#680=PRODUCT_CONTEXT('',#684,'mechanical');
#681=PRODUCT_CONTEXT('',#684,'mechanical');
#682=PRODUCT_CONTEXT('',#684,'mechanical');
#683=APPLICATION_PROTOCOL_DEFINITION('international standard',
'automotive_design',2010,#684);
#684=APPLICATION_CONTEXT(
'core data for automotive mechanical design processes');
ENDSEC;
END-ISO-10303-21;
