ISO-10303-21;
HEADER;
/* Generated by software containing ST-Developer
 * from STEP Tools, Inc. (www.steptools.com) 
 */
/* OPTION: strings as raw bytes, not using required /X/ escapes */

FILE_DESCRIPTION(
/* description */ (''),
/* implementation_level */ '2;1');

FILE_NAME(
/* name */ '33.160007.261.716',
/* time_stamp */ '2019-06-17T10:16:27+02:00',
/* author */ ('Murat Coskun Bicak'),
/* organization */ ('Evac AG'),
/* preprocessor_version */ 'ST-DEVELOPER v16.7',
/* originating_system */ 'DEX',
/* authorisation */ $);

FILE_SCHEMA (('AUTOMOTIVE_DESIGN {1 0 10303 214 3 1 1}'));
ENDSEC;

DATA;
#10=PROPERTY_DEFINITION_REPRESENTATION(#14,#12);
#11=PROPERTY_DEFINITION_REPRESENTATION(#15,#13);
#12=REPRESENTATION('',(#16),#511);
#13=REPRESENTATION('',(#17),#511);
#14=PROPERTY_DEFINITION('pmi validation property','',#516);
#15=PROPERTY_DEFINITION('pmi validation property','',#516);
#16=VALUE_REPRESENTATION_ITEM('number of annotations',COUNT_MEASURE(0.));
#17=VALUE_REPRESENTATION_ITEM('number of views',COUNT_MEASURE(0.));
#18=SHAPE_REPRESENTATION_RELATIONSHIP('','',#292,#19);
#19=ADVANCED_BREP_SHAPE_REPRESENTATION('',(#290),#511);
#20=TOROIDAL_SURFACE('',#314,83.,3.);
#21=TOROIDAL_SURFACE('',#315,93.,2.);
#22=TOROIDAL_SURFACE('',#327,83.,3.);
#23=TOROIDAL_SURFACE('',#328,93.,2.);
#24=TOROIDAL_SURFACE('',#330,93.,2.);
#25=TOROIDAL_SURFACE('',#335,83.,3.);
#26=CONICAL_SURFACE('',#311,95.,1.22173047639603);
#27=CONICAL_SURFACE('',#316,95.,0.785398163397448);
#28=CONICAL_SURFACE('',#324,95.,1.22173047639603);
#29=CONICAL_SURFACE('',#329,95.,0.785398163397448);
#30=CONICAL_SURFACE('',#333,95.,1.22173047639603);
#31=CONICAL_SURFACE('',#338,95.,0.785398163397448);
#32=PLANE('',#306);
#33=PLANE('',#319);
#34=PLANE('',#340);
#35=ELLIPSE('',#296,106.066017177982,75.);
#36=ELLIPSE('',#297,106.066017177982,75.);
#37=ELLIPSE('',#302,113.137084989848,80.);
#38=ELLIPSE('',#303,113.137084989848,80.);
#39=ORIENTED_EDGE('',*,*,#89,.T.);
#40=ORIENTED_EDGE('',*,*,#90,.F.);
#41=ORIENTED_EDGE('',*,*,#91,.F.);
#42=ORIENTED_EDGE('',*,*,#90,.T.);
#43=ORIENTED_EDGE('',*,*,#91,.T.);
#44=ORIENTED_EDGE('',*,*,#92,.T.);
#45=ORIENTED_EDGE('',*,*,#93,.F.);
#46=ORIENTED_EDGE('',*,*,#94,.F.);
#47=ORIENTED_EDGE('',*,*,#95,.T.);
#48=ORIENTED_EDGE('',*,*,#96,.F.);
#49=ORIENTED_EDGE('',*,*,#97,.T.);
#50=ORIENTED_EDGE('',*,*,#98,.T.);
#51=ORIENTED_EDGE('',*,*,#93,.T.);
#52=ORIENTED_EDGE('',*,*,#99,.T.);
#53=ORIENTED_EDGE('',*,*,#100,.T.);
#54=ORIENTED_EDGE('',*,*,#101,.T.);
#55=ORIENTED_EDGE('',*,*,#102,.T.);
#56=ORIENTED_EDGE('',*,*,#102,.F.);
#57=ORIENTED_EDGE('',*,*,#97,.F.);
#58=ORIENTED_EDGE('',*,*,#100,.F.);
#59=ORIENTED_EDGE('',*,*,#101,.F.);
#60=ORIENTED_EDGE('',*,*,#98,.F.);
#61=ORIENTED_EDGE('',*,*,#99,.F.);
#62=ORIENTED_EDGE('',*,*,#103,.F.);
#63=ORIENTED_EDGE('',*,*,#95,.F.);
#64=ORIENTED_EDGE('',*,*,#94,.T.);
#65=ORIENTED_EDGE('',*,*,#104,.F.);
#66=ORIENTED_EDGE('',*,*,#89,.F.);
#67=ORIENTED_EDGE('',*,*,#105,.F.);
#68=ORIENTED_EDGE('',*,*,#106,.F.);
#69=ORIENTED_EDGE('',*,*,#107,.F.);
#70=ORIENTED_EDGE('',*,*,#108,.F.);
#71=ORIENTED_EDGE('',*,*,#108,.T.);
#72=ORIENTED_EDGE('',*,*,#103,.T.);
#73=ORIENTED_EDGE('',*,*,#106,.T.);
#74=ORIENTED_EDGE('',*,*,#107,.T.);
#75=ORIENTED_EDGE('',*,*,#104,.T.);
#76=ORIENTED_EDGE('',*,*,#105,.T.);
#77=ORIENTED_EDGE('',*,*,#109,.T.);
#78=ORIENTED_EDGE('',*,*,#110,.T.);
#79=ORIENTED_EDGE('',*,*,#110,.F.);
#80=ORIENTED_EDGE('',*,*,#111,.F.);
#81=ORIENTED_EDGE('',*,*,#111,.T.);
#82=ORIENTED_EDGE('',*,*,#96,.T.);
#83=ORIENTED_EDGE('',*,*,#112,.F.);
#84=ORIENTED_EDGE('',*,*,#109,.F.);
#85=ORIENTED_EDGE('',*,*,#113,.T.);
#86=ORIENTED_EDGE('',*,*,#112,.T.);
#87=ORIENTED_EDGE('',*,*,#113,.F.);
#88=ORIENTED_EDGE('',*,*,#92,.F.);
#89=EDGE_CURVE('',#114,#114,#139,.T.);
#90=EDGE_CURVE('',#115,#116,#35,.F.);
#91=EDGE_CURVE('',#116,#115,#36,.F.);
#92=EDGE_CURVE('',#117,#117,#140,.T.);
#93=EDGE_CURVE('',#118,#118,#141,.T.);
#94=EDGE_CURVE('',#119,#120,#37,.T.);
#95=EDGE_CURVE('',#119,#120,#38,.T.);
#96=EDGE_CURVE('',#121,#121,#142,.T.);
#97=EDGE_CURVE('',#122,#122,#143,.T.);
#98=EDGE_CURVE('',#123,#123,#144,.F.);
#99=EDGE_CURVE('',#124,#124,#145,.T.);
#100=EDGE_CURVE('',#125,#125,#146,.T.);
#101=EDGE_CURVE('',#126,#126,#147,.T.);
#102=EDGE_CURVE('',#127,#127,#148,.T.);
#103=EDGE_CURVE('',#128,#128,#149,.T.);
#104=EDGE_CURVE('',#129,#129,#150,.F.);
#105=EDGE_CURVE('',#130,#130,#151,.T.);
#106=EDGE_CURVE('',#131,#131,#152,.T.);
#107=EDGE_CURVE('',#132,#132,#153,.T.);
#108=EDGE_CURVE('',#133,#133,#154,.T.);
#109=EDGE_CURVE('',#134,#134,#155,.T.);
#110=EDGE_CURVE('',#135,#135,#156,.T.);
#111=EDGE_CURVE('',#136,#136,#157,.T.);
#112=EDGE_CURVE('',#137,#137,#158,.T.);
#113=EDGE_CURVE('',#138,#138,#159,.F.);
#114=VERTEX_POINT('',#440);
#115=VERTEX_POINT('',#442);
#116=VERTEX_POINT('',#443);
#117=VERTEX_POINT('',#447);
#118=VERTEX_POINT('',#449);
#119=VERTEX_POINT('',#452);
#120=VERTEX_POINT('',#453);
#121=VERTEX_POINT('',#456);
#122=VERTEX_POINT('',#458);
#123=VERTEX_POINT('',#461);
#124=VERTEX_POINT('',#464);
#125=VERTEX_POINT('',#466);
#126=VERTEX_POINT('',#469);
#127=VERTEX_POINT('',#471);
#128=VERTEX_POINT('',#477);
#129=VERTEX_POINT('',#480);
#130=VERTEX_POINT('',#483);
#131=VERTEX_POINT('',#485);
#132=VERTEX_POINT('',#488);
#133=VERTEX_POINT('',#490);
#134=VERTEX_POINT('',#496);
#135=VERTEX_POINT('',#498);
#136=VERTEX_POINT('',#501);
#137=VERTEX_POINT('',#505);
#138=VERTEX_POINT('',#508);
#139=CIRCLE('',#295,75.);
#140=CIRCLE('',#299,75.);
#141=CIRCLE('',#300,75.);
#142=CIRCLE('',#304,80.);
#143=CIRCLE('',#305,80.);
#144=CIRCLE('',#307,94.5);
#145=CIRCLE('',#309,95.);
#146=CIRCLE('',#310,95.);
#147=CIRCLE('',#312,93.6840402866514);
#148=CIRCLE('',#313,81.973939570023);
#149=CIRCLE('',#318,80.);
#150=CIRCLE('',#320,94.5);
#151=CIRCLE('',#322,95.);
#152=CIRCLE('',#323,95.);
#153=CIRCLE('',#325,93.6840402866514);
#154=CIRCLE('',#326,81.973939570023);
#155=CIRCLE('',#331,95.);
#156=CIRCLE('',#332,93.6840402866514);
#157=CIRCLE('',#334,81.973939570023);
#158=CIRCLE('',#337,95.);
#159=CIRCLE('',#339,94.5);
#160=EDGE_LOOP('',(#39));
#161=EDGE_LOOP('',(#40,#41));
#162=EDGE_LOOP('',(#42,#43));
#163=EDGE_LOOP('',(#44));
#164=EDGE_LOOP('',(#45));
#165=EDGE_LOOP('',(#46,#47));
#166=EDGE_LOOP('',(#48));
#167=EDGE_LOOP('',(#49));
#168=EDGE_LOOP('',(#50));
#169=EDGE_LOOP('',(#51));
#170=EDGE_LOOP('',(#52));
#171=EDGE_LOOP('',(#53));
#172=EDGE_LOOP('',(#54));
#173=EDGE_LOOP('',(#55));
#174=EDGE_LOOP('',(#56));
#175=EDGE_LOOP('',(#57));
#176=EDGE_LOOP('',(#58));
#177=EDGE_LOOP('',(#59));
#178=EDGE_LOOP('',(#60));
#179=EDGE_LOOP('',(#61));
#180=EDGE_LOOP('',(#62));
#181=EDGE_LOOP('',(#63,#64));
#182=EDGE_LOOP('',(#65));
#183=EDGE_LOOP('',(#66));
#184=EDGE_LOOP('',(#67));
#185=EDGE_LOOP('',(#68));
#186=EDGE_LOOP('',(#69));
#187=EDGE_LOOP('',(#70));
#188=EDGE_LOOP('',(#71));
#189=EDGE_LOOP('',(#72));
#190=EDGE_LOOP('',(#73));
#191=EDGE_LOOP('',(#74));
#192=EDGE_LOOP('',(#75));
#193=EDGE_LOOP('',(#76));
#194=EDGE_LOOP('',(#77));
#195=EDGE_LOOP('',(#78));
#196=EDGE_LOOP('',(#79));
#197=EDGE_LOOP('',(#80));
#198=EDGE_LOOP('',(#81));
#199=EDGE_LOOP('',(#82));
#200=EDGE_LOOP('',(#83));
#201=EDGE_LOOP('',(#84));
#202=EDGE_LOOP('',(#85));
#203=EDGE_LOOP('',(#86));
#204=EDGE_LOOP('',(#87));
#205=EDGE_LOOP('',(#88));
#206=FACE_BOUND('',#160,.T.);
#207=FACE_BOUND('',#161,.T.);
#208=FACE_BOUND('',#162,.T.);
#209=FACE_BOUND('',#163,.T.);
#210=FACE_BOUND('',#164,.T.);
#211=FACE_BOUND('',#165,.T.);
#212=FACE_BOUND('',#166,.T.);
#213=FACE_BOUND('',#167,.T.);
#214=FACE_BOUND('',#168,.T.);
#215=FACE_BOUND('',#169,.T.);
#216=FACE_BOUND('',#170,.T.);
#217=FACE_BOUND('',#171,.T.);
#218=FACE_BOUND('',#172,.T.);
#219=FACE_BOUND('',#173,.T.);
#220=FACE_BOUND('',#174,.T.);
#221=FACE_BOUND('',#175,.T.);
#222=FACE_BOUND('',#176,.T.);
#223=FACE_BOUND('',#177,.T.);
#224=FACE_BOUND('',#178,.T.);
#225=FACE_BOUND('',#179,.T.);
#226=FACE_BOUND('',#180,.T.);
#227=FACE_BOUND('',#181,.T.);
#228=FACE_BOUND('',#182,.T.);
#229=FACE_BOUND('',#183,.T.);
#230=FACE_BOUND('',#184,.T.);
#231=FACE_BOUND('',#185,.T.);
#232=FACE_BOUND('',#186,.T.);
#233=FACE_BOUND('',#187,.T.);
#234=FACE_BOUND('',#188,.T.);
#235=FACE_BOUND('',#189,.T.);
#236=FACE_BOUND('',#190,.T.);
#237=FACE_BOUND('',#191,.T.);
#238=FACE_BOUND('',#192,.T.);
#239=FACE_BOUND('',#193,.T.);
#240=FACE_BOUND('',#194,.T.);
#241=FACE_BOUND('',#195,.T.);
#242=FACE_BOUND('',#196,.T.);
#243=FACE_BOUND('',#197,.T.);
#244=FACE_BOUND('',#198,.T.);
#245=FACE_BOUND('',#199,.T.);
#246=FACE_BOUND('',#200,.T.);
#247=FACE_BOUND('',#201,.T.);
#248=FACE_BOUND('',#202,.T.);
#249=FACE_BOUND('',#203,.T.);
#250=FACE_BOUND('',#204,.T.);
#251=FACE_BOUND('',#205,.T.);
#252=CYLINDRICAL_SURFACE('',#294,75.);
#253=CYLINDRICAL_SURFACE('',#298,75.);
#254=CYLINDRICAL_SURFACE('',#301,80.);
#255=CYLINDRICAL_SURFACE('',#308,95.);
#256=CYLINDRICAL_SURFACE('',#317,80.);
#257=CYLINDRICAL_SURFACE('',#321,95.);
#258=CYLINDRICAL_SURFACE('',#336,95.);
#259=ADVANCED_FACE('',(#206,#207),#252,.F.);
#260=ADVANCED_FACE('',(#208,#209,#210),#253,.F.);
#261=ADVANCED_FACE('',(#211,#212,#213),#254,.T.);
#262=ADVANCED_FACE('',(#214,#215),#32,.F.);
#263=ADVANCED_FACE('',(#216,#217),#255,.T.);
#264=ADVANCED_FACE('',(#218,#219),#26,.T.);
#265=ADVANCED_FACE('',(#220,#221),#20,.F.);
#266=ADVANCED_FACE('',(#222,#223),#21,.T.);
#267=ADVANCED_FACE('',(#224,#225),#27,.T.);
#268=ADVANCED_FACE('',(#226,#227),#256,.T.);
#269=ADVANCED_FACE('',(#228,#229),#33,.F.);
#270=ADVANCED_FACE('',(#230,#231),#257,.T.);
#271=ADVANCED_FACE('',(#232,#233),#28,.T.);
#272=ADVANCED_FACE('',(#234,#235),#22,.F.);
#273=ADVANCED_FACE('',(#236,#237),#23,.T.);
#274=ADVANCED_FACE('',(#238,#239),#29,.T.);
#275=ADVANCED_FACE('',(#240,#241),#24,.T.);
#276=ADVANCED_FACE('',(#242,#243),#30,.T.);
#277=ADVANCED_FACE('',(#244,#245),#25,.F.);
#278=ADVANCED_FACE('',(#246,#247),#258,.T.);
#279=ADVANCED_FACE('',(#248,#249),#31,.T.);
#280=ADVANCED_FACE('',(#250,#251),#34,.F.);
#281=CLOSED_SHELL('',(#259,#260,#261,#262,#263,#264,#265,#266,#267,#268,
#269,#270,#271,#272,#273,#274,#275,#276,#277,#278,#279,#280));
#282=STYLED_ITEM('',(#283),#290);
#283=PRESENTATION_STYLE_ASSIGNMENT((#284));
#284=SURFACE_STYLE_USAGE(.BOTH.,#285);
#285=SURFACE_SIDE_STYLE('',(#286));
#286=SURFACE_STYLE_FILL_AREA(#287);
#287=FILL_AREA_STYLE('',(#288));
#288=FILL_AREA_STYLE_COLOUR('',#289);
#289=COLOUR_RGB('',0.506983280181885,0.531564235687256,0.550000011920929);
#290=MANIFOLD_SOLID_BREP('',#281);
#291=SHAPE_DEFINITION_REPRESENTATION(#516,#292);
#292=SHAPE_REPRESENTATION('33.160007.261.716',(#293),#511);
#293=AXIS2_PLACEMENT_3D('',#437,#341,#342);
#294=AXIS2_PLACEMENT_3D('',#438,#343,#344);
#295=AXIS2_PLACEMENT_3D('',#439,#345,#346);
#296=AXIS2_PLACEMENT_3D('',#441,#347,#348);
#297=AXIS2_PLACEMENT_3D('',#444,#349,#350);
#298=AXIS2_PLACEMENT_3D('',#445,#351,#352);
#299=AXIS2_PLACEMENT_3D('',#446,#353,#354);
#300=AXIS2_PLACEMENT_3D('',#448,#355,#356);
#301=AXIS2_PLACEMENT_3D('',#450,#357,#358);
#302=AXIS2_PLACEMENT_3D('',#451,#359,#360);
#303=AXIS2_PLACEMENT_3D('',#454,#361,#362);
#304=AXIS2_PLACEMENT_3D('',#455,#363,#364);
#305=AXIS2_PLACEMENT_3D('',#457,#365,#366);
#306=AXIS2_PLACEMENT_3D('',#459,#367,#368);
#307=AXIS2_PLACEMENT_3D('',#460,#369,#370);
#308=AXIS2_PLACEMENT_3D('',#462,#371,#372);
#309=AXIS2_PLACEMENT_3D('',#463,#373,#374);
#310=AXIS2_PLACEMENT_3D('',#465,#375,#376);
#311=AXIS2_PLACEMENT_3D('',#467,#377,#378);
#312=AXIS2_PLACEMENT_3D('',#468,#379,#380);
#313=AXIS2_PLACEMENT_3D('',#470,#381,#382);
#314=AXIS2_PLACEMENT_3D('',#472,#383,#384);
#315=AXIS2_PLACEMENT_3D('',#473,#385,#386);
#316=AXIS2_PLACEMENT_3D('',#474,#387,#388);
#317=AXIS2_PLACEMENT_3D('',#475,#389,#390);
#318=AXIS2_PLACEMENT_3D('',#476,#391,#392);
#319=AXIS2_PLACEMENT_3D('',#478,#393,#394);
#320=AXIS2_PLACEMENT_3D('',#479,#395,#396);
#321=AXIS2_PLACEMENT_3D('',#481,#397,#398);
#322=AXIS2_PLACEMENT_3D('',#482,#399,#400);
#323=AXIS2_PLACEMENT_3D('',#484,#401,#402);
#324=AXIS2_PLACEMENT_3D('',#486,#403,#404);
#325=AXIS2_PLACEMENT_3D('',#487,#405,#406);
#326=AXIS2_PLACEMENT_3D('',#489,#407,#408);
#327=AXIS2_PLACEMENT_3D('',#491,#409,#410);
#328=AXIS2_PLACEMENT_3D('',#492,#411,#412);
#329=AXIS2_PLACEMENT_3D('',#493,#413,#414);
#330=AXIS2_PLACEMENT_3D('',#494,#415,#416);
#331=AXIS2_PLACEMENT_3D('',#495,#417,#418);
#332=AXIS2_PLACEMENT_3D('',#497,#419,#420);
#333=AXIS2_PLACEMENT_3D('',#499,#421,#422);
#334=AXIS2_PLACEMENT_3D('',#500,#423,#424);
#335=AXIS2_PLACEMENT_3D('',#502,#425,#426);
#336=AXIS2_PLACEMENT_3D('',#503,#427,#428);
#337=AXIS2_PLACEMENT_3D('',#504,#429,#430);
#338=AXIS2_PLACEMENT_3D('',#506,#431,#432);
#339=AXIS2_PLACEMENT_3D('',#507,#433,#434);
#340=AXIS2_PLACEMENT_3D('',#509,#435,#436);
#341=DIRECTION('',(0.,0.,1.));
#342=DIRECTION('',(1.,0.,0.));
#343=DIRECTION('',(-2.22044604925031E-16,0.,1.));
#344=DIRECTION('',(-1.,0.,-4.44089209850063E-16));
#345=DIRECTION('',(2.22044604925031E-16,0.,-1.));
#346=DIRECTION('',(-1.,0.,-4.44089209850063E-16));
#347=DIRECTION('',(-0.707106781186548,0.,0.707106781186547));
#348=DIRECTION('',(0.707106781186547,0.,0.707106781186548));
#349=DIRECTION('',(0.707106781186548,0.,0.707106781186548));
#350=DIRECTION('',(-0.707106781186548,0.,0.707106781186547));
#351=DIRECTION('',(-1.,0.,0.));
#352=DIRECTION('',(0.,0.,1.));
#353=DIRECTION('',(-1.,0.,0.));
#354=DIRECTION('',(0.,0.,1.));
#355=DIRECTION('',(-1.,0.,0.));
#356=DIRECTION('',(0.,0.,1.));
#357=DIRECTION('',(-1.,0.,0.));
#358=DIRECTION('',(0.,0.,1.));
#359=DIRECTION('',(0.707106781186548,0.,-0.707106781186548));
#360=DIRECTION('',(0.707106781186548,0.,0.707106781186547));
#361=DIRECTION('',(0.707106781186548,0.,0.707106781186548));
#362=DIRECTION('',(-0.707106781186548,0.,0.707106781186547));
#363=DIRECTION('',(-1.,0.,0.));
#364=DIRECTION('',(0.,0.,1.));
#365=DIRECTION('',(-1.,0.,0.));
#366=DIRECTION('',(0.,0.,1.));
#367=DIRECTION('',(-1.,0.,0.));
#368=DIRECTION('',(0.,0.,1.));
#369=DIRECTION('',(-1.,0.,0.));
#370=DIRECTION('',(0.,0.,1.));
#371=DIRECTION('',(-1.,0.,0.));
#372=DIRECTION('',(0.,0.,1.));
#373=DIRECTION('',(-1.,0.,0.));
#374=DIRECTION('',(0.,0.,1.));
#375=DIRECTION('',(1.,0.,0.));
#376=DIRECTION('',(0.,0.,-1.));
#377=DIRECTION('',(1.,0.,0.));
#378=DIRECTION('',(0.,0.,-1.));
#379=DIRECTION('',(-1.,0.,0.));
#380=DIRECTION('',(0.,0.,1.));
#381=DIRECTION('',(1.,0.,0.));
#382=DIRECTION('',(0.,0.,-1.));
#383=DIRECTION('',(-1.,0.,0.));
#384=DIRECTION('',(0.,0.,1.));
#385=DIRECTION('',(1.,0.,0.));
#386=DIRECTION('',(0.,0.,-1.));
#387=DIRECTION('',(-1.,0.,0.));
#388=DIRECTION('',(0.,0.,1.));
#389=DIRECTION('',(-2.22044604925031E-16,0.,1.));
#390=DIRECTION('',(-1.,0.,-4.44089209850063E-16));
#391=DIRECTION('',(2.22044604925031E-16,0.,-1.));
#392=DIRECTION('',(-1.,0.,-4.44089209850063E-16));
#393=DIRECTION('',(-2.22044604925031E-16,0.,1.));
#394=DIRECTION('',(-1.,0.,-4.44089209850063E-16));
#395=DIRECTION('',(2.22044604925031E-16,0.,-1.));
#396=DIRECTION('',(-1.,0.,-4.44089209850063E-16));
#397=DIRECTION('',(-2.22044604925031E-16,0.,1.));
#398=DIRECTION('',(-1.,0.,-4.44089209850063E-16));
#399=DIRECTION('',(2.22044604925031E-16,0.,-1.));
#400=DIRECTION('',(-1.,0.,-4.44089209850063E-16));
#401=DIRECTION('',(-2.22044604925031E-16,0.,1.));
#402=DIRECTION('',(1.,0.,4.44089209850063E-16));
#403=DIRECTION('',(2.22044604925031E-16,0.,-1.));
#404=DIRECTION('',(1.,0.,4.44089209850063E-16));
#405=DIRECTION('',(2.22044604925031E-16,0.,-1.));
#406=DIRECTION('',(-1.,0.,-4.44089209850063E-16));
#407=DIRECTION('',(-2.22044604925031E-16,0.,1.));
#408=DIRECTION('',(1.,0.,4.44089209850063E-16));
#409=DIRECTION('',(-2.22044604925031E-16,0.,1.));
#410=DIRECTION('',(-1.,0.,-4.44089209850063E-16));
#411=DIRECTION('',(2.22044604925031E-16,0.,-1.));
#412=DIRECTION('',(1.,0.,4.44089209850063E-16));
#413=DIRECTION('',(-2.22044604925031E-16,0.,1.));
#414=DIRECTION('',(-1.,0.,-4.44089209850063E-16));
#415=DIRECTION('',(-1.,0.,0.));
#416=DIRECTION('',(0.,0.,-1.));
#417=DIRECTION('',(1.,0.,0.));
#418=DIRECTION('',(0.,0.,-1.));
#419=DIRECTION('',(-1.,0.,0.));
#420=DIRECTION('',(0.,0.,1.));
#421=DIRECTION('',(-1.,0.,0.));
#422=DIRECTION('',(0.,0.,-1.));
#423=DIRECTION('',(1.,0.,0.));
#424=DIRECTION('',(0.,0.,-1.));
#425=DIRECTION('',(1.,0.,0.));
#426=DIRECTION('',(0.,0.,1.));
#427=DIRECTION('',(1.,0.,0.));
#428=DIRECTION('',(0.,0.,1.));
#429=DIRECTION('',(-1.,0.,0.));
#430=DIRECTION('',(0.,0.,1.));
#431=DIRECTION('',(1.,0.,0.));
#432=DIRECTION('',(0.,0.,1.));
#433=DIRECTION('',(-1.,0.,0.));
#434=DIRECTION('',(0.,0.,1.));
#435=DIRECTION('',(1.,0.,0.));
#436=DIRECTION('',(0.,0.,1.));
#437=CARTESIAN_POINT('',(0.,0.,0.));
#438=CARTESIAN_POINT('',(0.,0.,0.));
#439=CARTESIAN_POINT('',(3.06421554796543E-14,0.,-138.));
#440=CARTESIAN_POINT('',(-75.,0.,-138.));
#441=CARTESIAN_POINT('',(0.,0.,0.));
#442=CARTESIAN_POINT('',(0.,-75.,0.));
#443=CARTESIAN_POINT('',(0.,75.,0.));
#444=CARTESIAN_POINT('',(0.,0.,0.));
#445=CARTESIAN_POINT('',(0.,0.,0.));
#446=CARTESIAN_POINT('',(-138.,0.,0.));
#447=CARTESIAN_POINT('',(-138.,0.,75.));
#448=CARTESIAN_POINT('',(138.,0.,0.));
#449=CARTESIAN_POINT('',(138.,0.,75.));
#450=CARTESIAN_POINT('',(0.,0.,0.));
#451=CARTESIAN_POINT('',(0.,0.,0.));
#452=CARTESIAN_POINT('',(4.89858719658941E-15,-80.,4.89858719658941E-15));
#453=CARTESIAN_POINT('',(0.,80.,0.));
#454=CARTESIAN_POINT('',(0.,0.,0.));
#455=CARTESIAN_POINT('',(-122.302415898346,0.,0.));
#456=CARTESIAN_POINT('',(-122.302415898346,0.,80.));
#457=CARTESIAN_POINT('',(122.302415898346,0.,0.));
#458=CARTESIAN_POINT('',(122.302415898346,0.,80.));
#459=CARTESIAN_POINT('',(138.,0.,75.));
#460=CARTESIAN_POINT('',(138.,0.,0.));
#461=CARTESIAN_POINT('',(138.,0.,94.5));
#462=CARTESIAN_POINT('',(0.,0.,0.));
#463=CARTESIAN_POINT('',(137.5,0.,0.));
#464=CARTESIAN_POINT('',(137.5,0.,95.));
#465=CARTESIAN_POINT('',(131.263007103388,0.,0.));
#466=CARTESIAN_POINT('',(131.263007103388,0.,-95.));
#467=CARTESIAN_POINT('',(129.862592026968,0.,0.));
#468=CARTESIAN_POINT('',(129.383621861816,0.,0.));
#469=CARTESIAN_POINT('',(129.383621861816,0.,93.6840402866514));
#470=CARTESIAN_POINT('',(125.121493760704,0.,0.));
#471=CARTESIAN_POINT('',(125.121493760704,0.,-81.973939570023));
#472=CARTESIAN_POINT('',(122.302415898346,0.,0.));
#473=CARTESIAN_POINT('',(131.263007103388,0.,0.));
#474=CARTESIAN_POINT('',(137.5,0.,0.));
#475=CARTESIAN_POINT('',(0.,0.,0.));
#476=CARTESIAN_POINT('',(2.71565916195252E-14,0.,-122.302415898346));
#477=CARTESIAN_POINT('',(-80.,0.,-122.302415898346));
#478=CARTESIAN_POINT('',(-75.,0.,-138.));
#479=CARTESIAN_POINT('',(3.06421554796543E-14,0.,-138.));
#480=CARTESIAN_POINT('',(-94.5,0.,-138.));
#481=CARTESIAN_POINT('',(0.,0.,0.));
#482=CARTESIAN_POINT('',(3.05311331771918E-14,0.,-137.5));
#483=CARTESIAN_POINT('',(-95.,0.,-137.5));
#484=CARTESIAN_POINT('',(2.91462425535433E-14,0.,-131.263007103388));
#485=CARTESIAN_POINT('',(95.,0.,-131.263007103388));
#486=CARTESIAN_POINT('',(2.88352879411687E-14,0.,-129.862592026968));
#487=CARTESIAN_POINT('',(2.87289352000766E-14,0.,-129.383621861816));
#488=CARTESIAN_POINT('',(-93.6840402866513,0.,-129.383621861816));
#489=CARTESIAN_POINT('',(2.77825526497253E-14,0.,-125.121493760704));
#490=CARTESIAN_POINT('',(81.973939570023,0.,-125.121493760704));
#491=CARTESIAN_POINT('',(2.71565916195252E-14,0.,-122.302415898346));
#492=CARTESIAN_POINT('',(2.91462425535433E-14,0.,-131.263007103388));
#493=CARTESIAN_POINT('',(3.05311331771918E-14,0.,-137.5));
#494=CARTESIAN_POINT('',(-131.263007103388,0.,0.));
#495=CARTESIAN_POINT('',(-131.263007103388,0.,0.));
#496=CARTESIAN_POINT('',(-131.263007103388,0.,-95.));
#497=CARTESIAN_POINT('',(-129.383621861816,0.,0.));
#498=CARTESIAN_POINT('',(-129.383621861816,0.,93.6840402866514));
#499=CARTESIAN_POINT('',(-129.862592026968,0.,0.));
#500=CARTESIAN_POINT('',(-125.121493760704,0.,0.));
#501=CARTESIAN_POINT('',(-125.121493760704,0.,-81.973939570023));
#502=CARTESIAN_POINT('',(-122.302415898346,0.,0.));
#503=CARTESIAN_POINT('',(0.,0.,0.));
#504=CARTESIAN_POINT('',(-137.5,0.,0.));
#505=CARTESIAN_POINT('',(-137.5,0.,95.));
#506=CARTESIAN_POINT('',(-137.5,0.,0.));
#507=CARTESIAN_POINT('',(-138.,0.,0.));
#508=CARTESIAN_POINT('',(-138.,0.,94.5));
#509=CARTESIAN_POINT('',(-138.,0.,75.));
#510=MECHANICAL_DESIGN_GEOMETRIC_PRESENTATION_REPRESENTATION('',(#282),
#511);
#511=(
GEOMETRIC_REPRESENTATION_CONTEXT(3)
GLOBAL_UNCERTAINTY_ASSIGNED_CONTEXT((#512))
GLOBAL_UNIT_ASSIGNED_CONTEXT((#515,#514,#513))
REPRESENTATION_CONTEXT('33.160007.261.716','TOP_LEVEL_ASSEMBLY_PART')
);
#512=UNCERTAINTY_MEASURE_WITH_UNIT(LENGTH_MEASURE(0.005),#515,
'DISTANCE_ACCURACY_VALUE','Maximum Tolerance applied to model');
#513=(
NAMED_UNIT(*)
SI_UNIT($,.STERADIAN.)
SOLID_ANGLE_UNIT()
);
#514=(
NAMED_UNIT(*)
PLANE_ANGLE_UNIT()
SI_UNIT($,.RADIAN.)
);
#515=(
LENGTH_UNIT()
NAMED_UNIT(*)
SI_UNIT(.MILLI.,.METRE.)
);
#516=PRODUCT_DEFINITION_SHAPE('','',#517);
#517=PRODUCT_DEFINITION('','',#519,#518);
#518=PRODUCT_DEFINITION_CONTEXT('',#525,'design');
#519=PRODUCT_DEFINITION_FORMATION_WITH_SPECIFIED_SOURCE('','',#521,
 .NOT_KNOWN.);
#520=PRODUCT_RELATED_PRODUCT_CATEGORY('','',(#521));
#521=PRODUCT('33.160007.261.716','33.160007.261.716',
'33.160007.261.716',(#523));
#522=PRODUCT_CATEGORY('','');
#523=PRODUCT_CONTEXT('',#525,'mechanical');
#524=APPLICATION_PROTOCOL_DEFINITION('international standard',
'automotive_design',2010,#525);
#525=APPLICATION_CONTEXT(
'core data for automotive mechanical design processes');
ENDSEC;
END-ISO-10303-21;
