ISO-10303-21;
HEADER;
/* Generated by software containing ST-Developer
 * from STEP Tools, Inc. (www.steptools.com) 
 */
/* OPTION: strings as raw bytes, not using required /X/ escapes */

FILE_DESCRIPTION(
/* description */ (''),
/* implementation_level */ '2;1');

FILE_NAME(
/* name */ '33.200003.250.320',
/* time_stamp */ '2019-06-18T10:48:17+02:00',
/* author */ ('Murat Coskun Bicak'),
/* organization */ ('Evac AG'),
/* preprocessor_version */ 'ST-DEVELOPER v16.7',
/* originating_system */ 'DEX',
/* authorisation */ $);

FILE_SCHEMA (('AUTOMOTIVE_DESIGN {1 0 10303 214 3 1 1}'));
ENDSEC;

DATA;
#10=PROPERTY_DEFINITION_REPRESENTATION(#14,#12);
#11=PROPERTY_DEFINITION_REPRESENTATION(#15,#13);
#12=REPRESENTATION('',(#16),#497);
#13=REPRESENTATION('',(#17),#497);
#14=PROPERTY_DEFINITION('pmi validation property','',#506);
#15=PROPERTY_DEFINITION('pmi validation property','',#506);
#16=VALUE_REPRESENTATION_ITEM('number of annotations',COUNT_MEASURE(0.));
#17=VALUE_REPRESENTATION_ITEM('number of views',COUNT_MEASURE(0.));
#18=TOROIDAL_SURFACE('',#328,116.,1.);
#19=TOROIDAL_SURFACE('',#329,124.,2.);
#20=CONICAL_SURFACE('',#311,107.,0.785398163397448);
#21=CONICAL_SURFACE('',#313,109.55,0.785398163397466);
#22=CONICAL_SURFACE('',#316,106.5,0.785398163397483);
#23=CONICAL_SURFACE('',#319,114.,0.785398163397448);
#24=CONICAL_SURFACE('',#322,115.,1.22173047639603);
#25=CONICAL_SURFACE('',#333,126.,0.785398163397448);
#26=CONTEXT_DEPENDENT_SHAPE_REPRESENTATION(#32,#508);
#27=CONTEXT_DEPENDENT_SHAPE_REPRESENTATION(#33,#510);
#28=CONTEXT_DEPENDENT_SHAPE_REPRESENTATION(#34,#511);
#29=NEXT_ASSEMBLY_USAGE_OCCURRENCE('33.200003.250.320-Rohr',
'33.200003.250.320-Rohr','33.200003.250.320-Rohr',#512,#513,'');
#30=NEXT_ASSEMBLY_USAGE_OCCURRENCE('32.200003.210.320',
'32.200003.210.320','32.200003.210.320',#512,#514,'');
#31=NEXT_ASSEMBLY_USAGE_OCCURRENCE('32.200003.210.320',
'32.200003.210.320','32.200003.210.320',#512,#514,'');
#32=(
REPRESENTATION_RELATIONSHIP(' ',' ',#288,#289)
REPRESENTATION_RELATIONSHIP_WITH_TRANSFORMATION(#35)
SHAPE_REPRESENTATION_RELATIONSHIP()
);
#33=(
REPRESENTATION_RELATIONSHIP(' ',' ',#290,#289)
REPRESENTATION_RELATIONSHIP_WITH_TRANSFORMATION(#36)
SHAPE_REPRESENTATION_RELATIONSHIP()
);
#34=(
REPRESENTATION_RELATIONSHIP(' ',' ',#290,#289)
REPRESENTATION_RELATIONSHIP_WITH_TRANSFORMATION(#37)
SHAPE_REPRESENTATION_RELATIONSHIP()
);
#35=ITEM_DEFINED_TRANSFORMATION(' ',' ',#291,#304);
#36=ITEM_DEFINED_TRANSFORMATION(' ',' ',#291,#335);
#37=ITEM_DEFINED_TRANSFORMATION(' ',' ',#291,#336);
#38=SHAPE_REPRESENTATION_RELATIONSHIP('','',#288,#40);
#39=SHAPE_REPRESENTATION_RELATIONSHIP('','',#290,#41);
#40=ADVANCED_BREP_SHAPE_REPRESENTATION('',(#283),#498);
#41=ADVANCED_BREP_SHAPE_REPRESENTATION('',(#284),#499);
#42=PLANE('',#298);
#43=PLANE('',#303);
#44=PLANE('',#308);
#45=PLANE('',#332);
#46=PLANE('',#334);
#47=ELLIPSE('',#294,154.927095757973,109.55);
#48=ELLIPSE('',#297,150.613744392735,106.5);
#49=ORIENTED_EDGE('',*,*,#91,.T.);
#50=ORIENTED_EDGE('',*,*,#92,.F.);
#51=ORIENTED_EDGE('',*,*,#93,.F.);
#52=ORIENTED_EDGE('',*,*,#94,.F.);
#53=ORIENTED_EDGE('',*,*,#91,.F.);
#54=ORIENTED_EDGE('',*,*,#93,.T.);
#55=ORIENTED_EDGE('',*,*,#95,.F.);
#56=ORIENTED_EDGE('',*,*,#92,.T.);
#57=ORIENTED_EDGE('',*,*,#96,.T.);
#58=ORIENTED_EDGE('',*,*,#94,.T.);
#59=ORIENTED_EDGE('',*,*,#95,.T.);
#60=ORIENTED_EDGE('',*,*,#96,.F.);
#61=ORIENTED_EDGE('',*,*,#97,.T.);
#62=ORIENTED_EDGE('',*,*,#98,.F.);
#63=ORIENTED_EDGE('',*,*,#99,.T.);
#64=ORIENTED_EDGE('',*,*,#100,.F.);
#65=ORIENTED_EDGE('',*,*,#100,.T.);
#66=ORIENTED_EDGE('',*,*,#101,.F.);
#67=ORIENTED_EDGE('',*,*,#102,.F.);
#68=ORIENTED_EDGE('',*,*,#103,.T.);
#69=ORIENTED_EDGE('',*,*,#104,.F.);
#70=ORIENTED_EDGE('',*,*,#105,.T.);
#71=ORIENTED_EDGE('',*,*,#106,.F.);
#72=ORIENTED_EDGE('',*,*,#107,.T.);
#73=ORIENTED_EDGE('',*,*,#108,.T.);
#74=ORIENTED_EDGE('',*,*,#109,.T.);
#75=ORIENTED_EDGE('',*,*,#110,.T.);
#76=ORIENTED_EDGE('',*,*,#107,.F.);
#77=ORIENTED_EDGE('',*,*,#104,.T.);
#78=ORIENTED_EDGE('',*,*,#101,.T.);
#79=ORIENTED_EDGE('',*,*,#110,.F.);
#80=ORIENTED_EDGE('',*,*,#109,.F.);
#81=ORIENTED_EDGE('',*,*,#108,.F.);
#82=ORIENTED_EDGE('',*,*,#97,.F.);
#83=ORIENTED_EDGE('',*,*,#111,.F.);
#84=ORIENTED_EDGE('',*,*,#102,.T.);
#85=ORIENTED_EDGE('',*,*,#111,.T.);
#86=ORIENTED_EDGE('',*,*,#105,.F.);
#87=ORIENTED_EDGE('',*,*,#98,.T.);
#88=ORIENTED_EDGE('',*,*,#99,.F.);
#89=ORIENTED_EDGE('',*,*,#106,.T.);
#90=ORIENTED_EDGE('',*,*,#103,.F.);
#91=EDGE_CURVE('',#112,#112,#133,.T.);
#92=EDGE_CURVE('',#113,#113,#47,.T.);
#93=EDGE_CURVE('',#114,#114,#134,.T.);
#94=EDGE_CURVE('',#115,#115,#48,.F.);
#95=EDGE_CURVE('',#116,#116,#135,.T.);
#96=EDGE_CURVE('',#117,#117,#136,.T.);
#97=EDGE_CURVE('',#118,#118,#137,.T.);
#98=EDGE_CURVE('',#119,#119,#138,.T.);
#99=EDGE_CURVE('',#120,#120,#139,.T.);
#100=EDGE_CURVE('',#121,#121,#140,.T.);
#101=EDGE_CURVE('',#122,#122,#141,.T.);
#102=EDGE_CURVE('',#123,#123,#142,.T.);
#103=EDGE_CURVE('',#124,#124,#143,.T.);
#104=EDGE_CURVE('',#125,#125,#144,.T.);
#105=EDGE_CURVE('',#126,#126,#145,.T.);
#106=EDGE_CURVE('',#127,#127,#146,.T.);
#107=EDGE_CURVE('',#128,#128,#147,.T.);
#108=EDGE_CURVE('',#129,#129,#148,.T.);
#109=EDGE_CURVE('',#130,#130,#149,.T.);
#110=EDGE_CURVE('',#131,#131,#150,.T.);
#111=EDGE_CURVE('',#132,#132,#151,.T.);
#112=VERTEX_POINT('',#432);
#113=VERTEX_POINT('',#434);
#114=VERTEX_POINT('',#437);
#115=VERTEX_POINT('',#439);
#116=VERTEX_POINT('',#443);
#117=VERTEX_POINT('',#446);
#118=VERTEX_POINT('',#451);
#119=VERTEX_POINT('',#453);
#120=VERTEX_POINT('',#456);
#121=VERTEX_POINT('',#458);
#122=VERTEX_POINT('',#461);
#123=VERTEX_POINT('',#464);
#124=VERTEX_POINT('',#466);
#125=VERTEX_POINT('',#469);
#126=VERTEX_POINT('',#471);
#127=VERTEX_POINT('',#474);
#128=VERTEX_POINT('',#476);
#129=VERTEX_POINT('',#479);
#130=VERTEX_POINT('',#481);
#131=VERTEX_POINT('',#484);
#132=VERTEX_POINT('',#490);
#133=CIRCLE('',#293,109.55);
#134=CIRCLE('',#296,106.5);
#135=CIRCLE('',#300,109.55);
#136=CIRCLE('',#302,106.5);
#137=CIRCLE('',#306,126.);
#138=CIRCLE('',#307,126.);
#139=CIRCLE('',#309,125.5);
#140=CIRCLE('',#310,107.);
#141=CIRCLE('',#312,106.5);
#142=CIRCLE('',#314,109.55);
#143=CIRCLE('',#315,109.75);
#144=CIRCLE('',#317,106.5);
#145=CIRCLE('',#318,106.7);
#146=CIRCLE('',#320,114.);
#147=CIRCLE('',#321,115.);
#148=CIRCLE('',#323,124.684040286651);
#149=CIRCLE('',#324,115.657979856674);
#150=CIRCLE('',#326,115.);
#151=CIRCLE('',#331,109.55);
#152=EDGE_LOOP('',(#49));
#153=EDGE_LOOP('',(#50));
#154=EDGE_LOOP('',(#51));
#155=EDGE_LOOP('',(#52));
#156=EDGE_LOOP('',(#53));
#157=EDGE_LOOP('',(#54));
#158=EDGE_LOOP('',(#55));
#159=EDGE_LOOP('',(#56));
#160=EDGE_LOOP('',(#57));
#161=EDGE_LOOP('',(#58));
#162=EDGE_LOOP('',(#59));
#163=EDGE_LOOP('',(#60));
#164=EDGE_LOOP('',(#61));
#165=EDGE_LOOP('',(#62));
#166=EDGE_LOOP('',(#63));
#167=EDGE_LOOP('',(#64));
#168=EDGE_LOOP('',(#65));
#169=EDGE_LOOP('',(#66));
#170=EDGE_LOOP('',(#67));
#171=EDGE_LOOP('',(#68));
#172=EDGE_LOOP('',(#69));
#173=EDGE_LOOP('',(#70));
#174=EDGE_LOOP('',(#71));
#175=EDGE_LOOP('',(#72));
#176=EDGE_LOOP('',(#73));
#177=EDGE_LOOP('',(#74));
#178=EDGE_LOOP('',(#75));
#179=EDGE_LOOP('',(#76));
#180=EDGE_LOOP('',(#77));
#181=EDGE_LOOP('',(#78));
#182=EDGE_LOOP('',(#79));
#183=EDGE_LOOP('',(#80));
#184=EDGE_LOOP('',(#81));
#185=EDGE_LOOP('',(#82));
#186=EDGE_LOOP('',(#83));
#187=EDGE_LOOP('',(#84));
#188=EDGE_LOOP('',(#85));
#189=EDGE_LOOP('',(#86));
#190=EDGE_LOOP('',(#87));
#191=EDGE_LOOP('',(#88));
#192=EDGE_LOOP('',(#89));
#193=EDGE_LOOP('',(#90));
#194=FACE_BOUND('',#152,.T.);
#195=FACE_BOUND('',#153,.T.);
#196=FACE_BOUND('',#154,.T.);
#197=FACE_BOUND('',#155,.T.);
#198=FACE_BOUND('',#156,.T.);
#199=FACE_BOUND('',#157,.T.);
#200=FACE_BOUND('',#158,.T.);
#201=FACE_BOUND('',#159,.T.);
#202=FACE_BOUND('',#160,.T.);
#203=FACE_BOUND('',#161,.T.);
#204=FACE_BOUND('',#162,.T.);
#205=FACE_BOUND('',#163,.T.);
#206=FACE_BOUND('',#164,.T.);
#207=FACE_BOUND('',#165,.T.);
#208=FACE_BOUND('',#166,.T.);
#209=FACE_BOUND('',#167,.T.);
#210=FACE_BOUND('',#168,.T.);
#211=FACE_BOUND('',#169,.T.);
#212=FACE_BOUND('',#170,.T.);
#213=FACE_BOUND('',#171,.T.);
#214=FACE_BOUND('',#172,.T.);
#215=FACE_BOUND('',#173,.T.);
#216=FACE_BOUND('',#174,.T.);
#217=FACE_BOUND('',#175,.T.);
#218=FACE_BOUND('',#176,.T.);
#219=FACE_BOUND('',#177,.T.);
#220=FACE_BOUND('',#178,.T.);
#221=FACE_BOUND('',#179,.T.);
#222=FACE_BOUND('',#180,.T.);
#223=FACE_BOUND('',#181,.T.);
#224=FACE_BOUND('',#182,.T.);
#225=FACE_BOUND('',#183,.T.);
#226=FACE_BOUND('',#184,.T.);
#227=FACE_BOUND('',#185,.T.);
#228=FACE_BOUND('',#186,.T.);
#229=FACE_BOUND('',#187,.T.);
#230=FACE_BOUND('',#188,.T.);
#231=FACE_BOUND('',#189,.T.);
#232=FACE_BOUND('',#190,.T.);
#233=FACE_BOUND('',#191,.T.);
#234=FACE_BOUND('',#192,.T.);
#235=FACE_BOUND('',#193,.T.);
#236=CYLINDRICAL_SURFACE('',#292,109.55);
#237=CYLINDRICAL_SURFACE('',#295,106.5);
#238=CYLINDRICAL_SURFACE('',#299,109.55);
#239=CYLINDRICAL_SURFACE('',#301,106.5);
#240=CYLINDRICAL_SURFACE('',#305,126.);
#241=CYLINDRICAL_SURFACE('',#325,115.);
#242=CYLINDRICAL_SURFACE('',#327,106.5);
#243=CYLINDRICAL_SURFACE('',#330,109.55);
#244=ADVANCED_FACE('',(#194,#195),#236,.T.);
#245=ADVANCED_FACE('',(#196,#197),#237,.F.);
#246=ADVANCED_FACE('',(#198,#199),#42,.F.);
#247=ADVANCED_FACE('',(#200,#201),#238,.T.);
#248=ADVANCED_FACE('',(#202,#203),#239,.F.);
#249=ADVANCED_FACE('',(#204,#205),#43,.F.);
#250=ADVANCED_FACE('',(#206,#207),#240,.T.);
#251=ADVANCED_FACE('',(#208,#209),#44,.T.);
#252=ADVANCED_FACE('',(#210,#211),#20,.F.);
#253=ADVANCED_FACE('',(#212,#213),#21,.F.);
#254=ADVANCED_FACE('',(#214,#215),#22,.F.);
#255=ADVANCED_FACE('',(#216,#217),#23,.T.);
#256=ADVANCED_FACE('',(#218,#219),#24,.T.);
#257=ADVANCED_FACE('',(#220,#221),#241,.T.);
#258=ADVANCED_FACE('',(#222,#223),#242,.F.);
#259=ADVANCED_FACE('',(#224,#225),#18,.F.);
#260=ADVANCED_FACE('',(#226,#227),#19,.T.);
#261=ADVANCED_FACE('',(#228,#229),#243,.F.);
#262=ADVANCED_FACE('',(#230,#231),#45,.T.);
#263=ADVANCED_FACE('',(#232,#233),#25,.T.);
#264=ADVANCED_FACE('',(#234,#235),#46,.T.);
#265=CLOSED_SHELL('',(#244,#245,#246,#247,#248,#249));
#266=CLOSED_SHELL('',(#250,#251,#252,#253,#254,#255,#256,#257,#258,#259,
#260,#261,#262,#263,#264));
#267=STYLED_ITEM('',(#269),#283);
#268=STYLED_ITEM('',(#270),#284);
#269=PRESENTATION_STYLE_ASSIGNMENT((#271));
#270=PRESENTATION_STYLE_ASSIGNMENT((#272));
#271=SURFACE_STYLE_USAGE(.BOTH.,#273);
#272=SURFACE_STYLE_USAGE(.BOTH.,#274);
#273=SURFACE_SIDE_STYLE('',(#275));
#274=SURFACE_SIDE_STYLE('',(#276));
#275=SURFACE_STYLE_FILL_AREA(#277);
#276=SURFACE_STYLE_FILL_AREA(#278);
#277=FILL_AREA_STYLE('',(#279));
#278=FILL_AREA_STYLE('',(#280));
#279=FILL_AREA_STYLE_COLOUR('',#281);
#280=FILL_AREA_STYLE_COLOUR('',#282);
#281=COLOUR_RGB('',0.506983280181885,0.531564235687256,0.550000011920929);
#282=COLOUR_RGB('',0.517647087574005,0.517647087574005,0.517647087574005);
#283=MANIFOLD_SOLID_BREP('',#265);
#284=MANIFOLD_SOLID_BREP('1',#266);
#285=SHAPE_DEFINITION_REPRESENTATION(#507,#288);
#286=SHAPE_DEFINITION_REPRESENTATION(#506,#289);
#287=SHAPE_DEFINITION_REPRESENTATION(#509,#290);
#288=SHAPE_REPRESENTATION('33.200003.250.320-Rohr',(#291),#498);
#289=SHAPE_REPRESENTATION('33.200003.250.320',(#291,#304,#335,#336),#497);
#290=SHAPE_REPRESENTATION('32.200003.210.320',(#291),#499);
#291=AXIS2_PLACEMENT_3D('',#429,#337,#338);
#292=AXIS2_PLACEMENT_3D('',#430,#339,#340);
#293=AXIS2_PLACEMENT_3D('',#431,#341,#342);
#294=AXIS2_PLACEMENT_3D('',#433,#343,#344);
#295=AXIS2_PLACEMENT_3D('',#435,#345,#346);
#296=AXIS2_PLACEMENT_3D('',#436,#347,#348);
#297=AXIS2_PLACEMENT_3D('',#438,#349,#350);
#298=AXIS2_PLACEMENT_3D('',#440,#351,#352);
#299=AXIS2_PLACEMENT_3D('',#441,#353,#354);
#300=AXIS2_PLACEMENT_3D('',#442,#355,#356);
#301=AXIS2_PLACEMENT_3D('',#444,#357,#358);
#302=AXIS2_PLACEMENT_3D('',#445,#359,#360);
#303=AXIS2_PLACEMENT_3D('',#447,#361,#362);
#304=AXIS2_PLACEMENT_3D('',#448,#363,#364);
#305=AXIS2_PLACEMENT_3D('',#449,#365,#366);
#306=AXIS2_PLACEMENT_3D('',#450,#367,#368);
#307=AXIS2_PLACEMENT_3D('',#452,#369,#370);
#308=AXIS2_PLACEMENT_3D('',#454,#371,#372);
#309=AXIS2_PLACEMENT_3D('',#455,#373,#374);
#310=AXIS2_PLACEMENT_3D('',#457,#375,#376);
#311=AXIS2_PLACEMENT_3D('',#459,#377,#378);
#312=AXIS2_PLACEMENT_3D('',#460,#379,#380);
#313=AXIS2_PLACEMENT_3D('',#462,#381,#382);
#314=AXIS2_PLACEMENT_3D('',#463,#383,#384);
#315=AXIS2_PLACEMENT_3D('',#465,#385,#386);
#316=AXIS2_PLACEMENT_3D('',#467,#387,#388);
#317=AXIS2_PLACEMENT_3D('',#468,#389,#390);
#318=AXIS2_PLACEMENT_3D('',#470,#391,#392);
#319=AXIS2_PLACEMENT_3D('',#472,#393,#394);
#320=AXIS2_PLACEMENT_3D('',#473,#395,#396);
#321=AXIS2_PLACEMENT_3D('',#475,#397,#398);
#322=AXIS2_PLACEMENT_3D('',#477,#399,#400);
#323=AXIS2_PLACEMENT_3D('',#478,#401,#402);
#324=AXIS2_PLACEMENT_3D('',#480,#403,#404);
#325=AXIS2_PLACEMENT_3D('',#482,#405,#406);
#326=AXIS2_PLACEMENT_3D('',#483,#407,#408);
#327=AXIS2_PLACEMENT_3D('',#485,#409,#410);
#328=AXIS2_PLACEMENT_3D('',#486,#411,#412);
#329=AXIS2_PLACEMENT_3D('',#487,#413,#414);
#330=AXIS2_PLACEMENT_3D('',#488,#415,#416);
#331=AXIS2_PLACEMENT_3D('',#489,#417,#418);
#332=AXIS2_PLACEMENT_3D('',#491,#419,#420);
#333=AXIS2_PLACEMENT_3D('',#492,#421,#422);
#334=AXIS2_PLACEMENT_3D('',#493,#423,#424);
#335=AXIS2_PLACEMENT_3D('',#494,#425,#426);
#336=AXIS2_PLACEMENT_3D('',#495,#427,#428);
#337=DIRECTION('',(0.,0.,1.));
#338=DIRECTION('',(1.,0.,0.));
#339=DIRECTION('',(-1.,0.,0.));
#340=DIRECTION('',(0.,0.,1.));
#341=DIRECTION('',(-1.,0.,0.));
#342=DIRECTION('',(0.,0.,1.));
#343=DIRECTION('',(-0.707106781186547,0.,-0.707106781186548));
#344=DIRECTION('',(-0.707106781186548,0.,0.707106781186547));
#345=DIRECTION('',(-1.,0.,0.));
#346=DIRECTION('',(0.,0.,1.));
#347=DIRECTION('',(-1.,0.,0.));
#348=DIRECTION('',(0.,0.,1.));
#349=DIRECTION('',(-0.707106781186547,0.,-0.707106781186548));
#350=DIRECTION('',(-0.707106781186548,0.,0.707106781186547));
#351=DIRECTION('',(-1.,0.,0.));
#352=DIRECTION('',(0.,0.,1.));
#353=DIRECTION('',(-4.44089209850063E-16,0.,1.));
#354=DIRECTION('',(-1.,0.,-6.66133814775094E-16));
#355=DIRECTION('',(4.44089209850063E-16,0.,-1.));
#356=DIRECTION('',(-1.,0.,-6.66133814775094E-16));
#357=DIRECTION('',(-4.44089209850063E-16,0.,1.));
#358=DIRECTION('',(-1.,0.,-6.66133814775094E-16));
#359=DIRECTION('',(4.44089209850063E-16,0.,-1.));
#360=DIRECTION('',(-1.,0.,-6.66133814775094E-16));
#361=DIRECTION('',(-4.44089209850063E-16,0.,1.));
#362=DIRECTION('',(-1.,0.,-6.66133814775094E-16));
#363=DIRECTION('',(0.,0.,1.));
#364=DIRECTION('',(1.,0.,0.));
#365=DIRECTION('',(1.,0.,0.));
#366=DIRECTION('',(0.,0.,1.));
#367=DIRECTION('',(1.,0.,0.));
#368=DIRECTION('',(0.,0.,-1.));
#369=DIRECTION('',(1.,0.,0.));
#370=DIRECTION('',(0.,0.,-1.));
#371=DIRECTION('',(1.,0.,0.));
#372=DIRECTION('',(0.,0.,-1.));
#373=DIRECTION('',(1.,0.,0.));
#374=DIRECTION('',(0.,0.,-1.));
#375=DIRECTION('',(1.,0.,0.));
#376=DIRECTION('',(0.,0.,-1.));
#377=DIRECTION('',(1.,0.,0.));
#378=DIRECTION('',(0.,0.,-1.));
#379=DIRECTION('',(1.,0.,0.));
#380=DIRECTION('',(0.,0.,-1.));
#381=DIRECTION('',(-1.,0.,0.));
#382=DIRECTION('',(0.,0.,1.));
#383=DIRECTION('',(-1.,0.,0.));
#384=DIRECTION('',(0.,0.,1.));
#385=DIRECTION('',(-1.,0.,0.));
#386=DIRECTION('',(0.,0.,1.));
#387=DIRECTION('',(-1.,0.,0.));
#388=DIRECTION('',(0.,0.,1.));
#389=DIRECTION('',(-1.,0.,0.));
#390=DIRECTION('',(0.,0.,1.));
#391=DIRECTION('',(-1.,0.,0.));
#392=DIRECTION('',(0.,0.,1.));
#393=DIRECTION('',(1.,0.,0.));
#394=DIRECTION('',(0.,0.,-1.));
#395=DIRECTION('',(-1.,0.,0.));
#396=DIRECTION('',(0.,0.,1.));
#397=DIRECTION('',(-1.,0.,0.));
#398=DIRECTION('',(0.,0.,1.));
#399=DIRECTION('',(1.,0.,0.));
#400=DIRECTION('',(0.,0.,-1.));
#401=DIRECTION('',(-1.,0.,0.));
#402=DIRECTION('',(0.,0.,1.));
#403=DIRECTION('',(1.,0.,0.));
#404=DIRECTION('',(0.,0.,-1.));
#405=DIRECTION('',(1.,0.,0.));
#406=DIRECTION('',(0.,0.,1.));
#407=DIRECTION('',(-1.,0.,0.));
#408=DIRECTION('',(0.,0.,1.));
#409=DIRECTION('',(1.,0.,0.));
#410=DIRECTION('',(0.,0.,1.));
#411=DIRECTION('',(-1.,0.,0.));
#412=DIRECTION('',(0.,0.,1.));
#413=DIRECTION('',(1.,0.,0.));
#414=DIRECTION('',(0.,0.,-1.));
#415=DIRECTION('',(1.,0.,0.));
#416=DIRECTION('',(0.,0.,1.));
#417=DIRECTION('',(-1.,0.,0.));
#418=DIRECTION('',(0.,0.,1.));
#419=DIRECTION('',(-1.,0.,0.));
#420=DIRECTION('',(0.,0.,1.));
#421=DIRECTION('',(-1.,0.,0.));
#422=DIRECTION('',(0.,0.,1.));
#423=DIRECTION('',(-1.,0.,0.));
#424=DIRECTION('',(0.,0.,1.));
#425=DIRECTION('',(1.38777878078145E-17,7.70371977754896E-34,1.));
#426=DIRECTION('',(1.,-5.55111512312578E-17,-1.38777878078145E-17));
#427=DIRECTION('',(1.,-1.11022302462516E-16,5.66553889764798E-16));
#428=DIRECTION('',(5.66553889764798E-16,4.93038065763132E-32,-1.));
#429=CARTESIAN_POINT('',(0.,0.,0.));
#430=CARTESIAN_POINT('',(0.,0.,0.));
#431=CARTESIAN_POINT('',(178.,0.,0.));
#432=CARTESIAN_POINT('',(178.,0.,109.55));
#433=CARTESIAN_POINT('',(5.88784672006416E-14,0.,0.));
#434=CARTESIAN_POINT('',(-109.55,0.,109.55));
#435=CARTESIAN_POINT('',(0.,0.,0.));
#436=CARTESIAN_POINT('',(178.,0.,0.));
#437=CARTESIAN_POINT('',(178.,0.,106.5));
#438=CARTESIAN_POINT('',(5.88784672006416E-14,0.,0.));
#439=CARTESIAN_POINT('',(-106.5,0.,106.5));
#440=CARTESIAN_POINT('',(178.,0.,106.5));
#441=CARTESIAN_POINT('',(0.,0.,0.));
#442=CARTESIAN_POINT('',(7.90478793533111E-14,0.,-178.));
#443=CARTESIAN_POINT('',(-109.55,0.,-178.));
#444=CARTESIAN_POINT('',(0.,0.,0.));
#445=CARTESIAN_POINT('',(7.90478793533111E-14,0.,-178.));
#446=CARTESIAN_POINT('',(-106.5,0.,-178.));
#447=CARTESIAN_POINT('',(-106.5,0.,-178.));
#448=CARTESIAN_POINT('',(0.,0.,0.));
#449=CARTESIAN_POINT('',(-60.,0.,0.));
#450=CARTESIAN_POINT('',(13.2604150764194,0.,0.));
#451=CARTESIAN_POINT('',(13.2604150764194,0.,-126.));
#452=CARTESIAN_POINT('',(19.5,0.,0.));
#453=CARTESIAN_POINT('',(19.5,0.,-126.));
#454=CARTESIAN_POINT('',(20.,0.,126.));
#455=CARTESIAN_POINT('',(20.,0.,0.));
#456=CARTESIAN_POINT('',(20.,0.,-125.5));
#457=CARTESIAN_POINT('',(20.,0.,0.));
#458=CARTESIAN_POINT('',(20.,0.,-107.));
#459=CARTESIAN_POINT('',(20.,0.,0.));
#460=CARTESIAN_POINT('',(19.5,0.,0.));
#461=CARTESIAN_POINT('',(19.5,0.,-106.5));
#462=CARTESIAN_POINT('',(0.2,0.,0.));
#463=CARTESIAN_POINT('',(0.2,0.,0.));
#464=CARTESIAN_POINT('',(0.2,0.,109.55));
#465=CARTESIAN_POINT('',(0.,0.,0.));
#466=CARTESIAN_POINT('',(0.,0.,109.75));
#467=CARTESIAN_POINT('',(5.2,0.,0.));
#468=CARTESIAN_POINT('',(5.2,0.,0.));
#469=CARTESIAN_POINT('',(5.2,0.,106.5));
#470=CARTESIAN_POINT('',(5.,0.,0.));
#471=CARTESIAN_POINT('',(5.,0.,106.7));
#472=CARTESIAN_POINT('',(0.,0.,0.));
#473=CARTESIAN_POINT('',(0.,0.,0.));
#474=CARTESIAN_POINT('',(0.,0.,114.));
#475=CARTESIAN_POINT('',(1.,0.,0.));
#476=CARTESIAN_POINT('',(1.,0.,115.));
#477=CARTESIAN_POINT('',(7.85632742307178,0.,0.));
#478=CARTESIAN_POINT('',(11.3810298348476,0.,0.));
#479=CARTESIAN_POINT('',(11.3810298348476,0.,124.684040286651));
#480=CARTESIAN_POINT('',(8.095812505648,0.,0.));
#481=CARTESIAN_POINT('',(8.095812505648,0.,-115.657979856674));
#482=CARTESIAN_POINT('',(-60.,0.,0.));
#483=CARTESIAN_POINT('',(7.15611988486208,0.,0.));
#484=CARTESIAN_POINT('',(7.15611988486208,0.,115.));
#485=CARTESIAN_POINT('',(-60.,0.,0.));
#486=CARTESIAN_POINT('',(7.15611988486208,0.,0.));
#487=CARTESIAN_POINT('',(13.2604150764194,0.,0.));
#488=CARTESIAN_POINT('',(-60.,0.,0.));
#489=CARTESIAN_POINT('',(5.,0.,0.));
#490=CARTESIAN_POINT('',(5.,0.,109.55));
#491=CARTESIAN_POINT('',(5.,0.,106.5));
#492=CARTESIAN_POINT('',(19.5,0.,0.));
#493=CARTESIAN_POINT('',(0.,0.,109.55));
#494=CARTESIAN_POINT('',(173.,2.7755575615629E-16,6.93889390390722E-17));
#495=CARTESIAN_POINT('',(7.62151099044872E-14,1.32589836802536E-31,-173.));
#496=MECHANICAL_DESIGN_GEOMETRIC_PRESENTATION_REPRESENTATION('',(#267,#268),
#497);
#497=(
GEOMETRIC_REPRESENTATION_CONTEXT(3)
GLOBAL_UNCERTAINTY_ASSIGNED_CONTEXT((#500))
GLOBAL_UNIT_ASSIGNED_CONTEXT((#505,#504,#503))
REPRESENTATION_CONTEXT('33.200003.250.320','TOP_LEVEL_ASSEMBLY_PART')
);
#498=(
GEOMETRIC_REPRESENTATION_CONTEXT(3)
GLOBAL_UNCERTAINTY_ASSIGNED_CONTEXT((#501))
GLOBAL_UNIT_ASSIGNED_CONTEXT((#505,#504,#503))
REPRESENTATION_CONTEXT('33.200003.250.320-Rohr','COMPONENT_PART')
);
#499=(
GEOMETRIC_REPRESENTATION_CONTEXT(3)
GLOBAL_UNCERTAINTY_ASSIGNED_CONTEXT((#502))
GLOBAL_UNIT_ASSIGNED_CONTEXT((#505,#504,#503))
REPRESENTATION_CONTEXT('32.200003.210.320','COMPONENT_PART')
);
#500=UNCERTAINTY_MEASURE_WITH_UNIT(LENGTH_MEASURE(0.005),#505,
'DISTANCE_ACCURACY_VALUE','Maximum Tolerance applied to model');
#501=UNCERTAINTY_MEASURE_WITH_UNIT(LENGTH_MEASURE(0.005),#505,
'DISTANCE_ACCURACY_VALUE','Maximum Tolerance applied to model');
#502=UNCERTAINTY_MEASURE_WITH_UNIT(LENGTH_MEASURE(0.005),#505,
'DISTANCE_ACCURACY_VALUE','Maximum Tolerance applied to model');
#503=(
NAMED_UNIT(*)
SI_UNIT($,.STERADIAN.)
SOLID_ANGLE_UNIT()
);
#504=(
NAMED_UNIT(*)
PLANE_ANGLE_UNIT()
SI_UNIT($,.RADIAN.)
);
#505=(
LENGTH_UNIT()
NAMED_UNIT(*)
SI_UNIT(.MILLI.,.METRE.)
);
#506=PRODUCT_DEFINITION_SHAPE('','',#512);
#507=PRODUCT_DEFINITION_SHAPE('','',#513);
#508=PRODUCT_DEFINITION_SHAPE(' ','NAUO PRDDFN',#29);
#509=PRODUCT_DEFINITION_SHAPE('','',#514);
#510=PRODUCT_DEFINITION_SHAPE(' ','NAUO PRDDFN',#30);
#511=PRODUCT_DEFINITION_SHAPE(' ','NAUO PRDDFN',#31);
#512=PRODUCT_DEFINITION('','',#518,#515);
#513=PRODUCT_DEFINITION('','',#519,#516);
#514=PRODUCT_DEFINITION('','',#520,#517);
#515=PRODUCT_DEFINITION_CONTEXT('',#534,'design');
#516=PRODUCT_DEFINITION_CONTEXT('',#534,'design');
#517=PRODUCT_DEFINITION_CONTEXT('',#534,'design');
#518=PRODUCT_DEFINITION_FORMATION_WITH_SPECIFIED_SOURCE('','',#524,
 .NOT_KNOWN.);
#519=PRODUCT_DEFINITION_FORMATION_WITH_SPECIFIED_SOURCE('','',#525,
 .NOT_KNOWN.);
#520=PRODUCT_DEFINITION_FORMATION_WITH_SPECIFIED_SOURCE('','',#526,
 .NOT_KNOWN.);
#521=PRODUCT_RELATED_PRODUCT_CATEGORY('','',(#524));
#522=PRODUCT_RELATED_PRODUCT_CATEGORY('','',(#525));
#523=PRODUCT_RELATED_PRODUCT_CATEGORY('','',(#526));
#524=PRODUCT('33.200003.250.320','33.200003.250.320',
'33.200003.250.320',(#530));
#525=PRODUCT('33.200003.250.320-Rohr','33.200003.250.320-Rohr',
'33.200003.250.320-Rohr',(#531));
#526=PRODUCT('32.200003.210.320','32.200003.210.320',
'32.200003.210.320',(#532));
#527=PRODUCT_CATEGORY('','');
#528=PRODUCT_CATEGORY('','');
#529=PRODUCT_CATEGORY('','');
#530=PRODUCT_CONTEXT('',#534,'mechanical');
#531=PRODUCT_CONTEXT('',#534,'mechanical');
#532=PRODUCT_CONTEXT('',#534,'mechanical');
#533=APPLICATION_PROTOCOL_DEFINITION('international standard',
'automotive_design',2010,#534);
#534=APPLICATION_CONTEXT(
'core data for automotive mechanical design processes');
ENDSEC;
END-ISO-10303-21;
