ISO-10303-21;
HEADER;
/* Generated by software containing ST-Developer
 * from STEP Tools, Inc. (www.steptools.com) 
 */
/* OPTION: strings as raw bytes, not using required /X/ escapes */

FILE_DESCRIPTION(
/* description */ (''),
/* implementation_level */ '2;1');

FILE_NAME(
/* name */ '33.250003.222.325',
/* time_stamp */ '2019-06-19T11:46:28+02:00',
/* author */ ('Murat Coskun Bicak'),
/* organization */ ('Evac AG'),
/* preprocessor_version */ 'ST-DEVELOPER v16.7',
/* originating_system */ 'DEX',
/* authorisation */ $);

FILE_SCHEMA (('AUTOMOTIVE_DESIGN {1 0 10303 214 3 1 1}'));
ENDSEC;

DATA;
#10=PROPERTY_DEFINITION_REPRESENTATION(#14,#12);
#11=PROPERTY_DEFINITION_REPRESENTATION(#15,#13);
#12=REPRESENTATION('',(#16),#449);
#13=REPRESENTATION('',(#17),#449);
#14=PROPERTY_DEFINITION('pmi validation property','',#458);
#15=PROPERTY_DEFINITION('pmi validation property','',#458);
#16=VALUE_REPRESENTATION_ITEM('number of annotations',COUNT_MEASURE(0.));
#17=VALUE_REPRESENTATION_ITEM('number of views',COUNT_MEASURE(0.));
#18=CONICAL_SURFACE('',#284,138.5,0.785398163397448);
#19=CONICAL_SURFACE('',#287,130.5,0.785398163397448);
#20=CONICAL_SURFACE('',#290,136.5,0.785398163397448);
#21=CONICAL_SURFACE('',#293,139.5,1.22173047639603);
#22=CONICAL_SURFACE('',#298,150.5,0.785398163397448);
#23=CONICAL_SURFACE('',#299,131.,0.785398163397448);
#24=TOROIDAL_SURFACE('',#281,140.5,1.);
#25=TOROIDAL_SURFACE('',#303,148.5,2.);
#26=CONTEXT_DEPENDENT_SHAPE_REPRESENTATION(#30,#460);
#27=CONTEXT_DEPENDENT_SHAPE_REPRESENTATION(#31,#462);
#28=NEXT_ASSEMBLY_USAGE_OCCURRENCE('33.250003.222.325-Rohr',
'33.250003.222.325-Rohr','33.250003.222.325-Rohr',#463,#464,'');
#29=NEXT_ASSEMBLY_USAGE_OCCURRENCE('32.250003.210.325',
'32.250003.210.325','32.250003.210.325',#463,#465,'');
#30=(
REPRESENTATION_RELATIONSHIP(' ',' ',#262,#263)
REPRESENTATION_RELATIONSHIP_WITH_TRANSFORMATION(#32)
SHAPE_REPRESENTATION_RELATIONSHIP()
);
#31=(
REPRESENTATION_RELATIONSHIP(' ',' ',#264,#263)
REPRESENTATION_RELATIONSHIP_WITH_TRANSFORMATION(#33)
SHAPE_REPRESENTATION_RELATIONSHIP()
);
#32=ITEM_DEFINED_TRANSFORMATION(' ',' ',#265,#274);
#33=ITEM_DEFINED_TRANSFORMATION(' ',' ',#265,#305);
#34=SHAPE_REPRESENTATION_RELATIONSHIP('','',#262,#36);
#35=SHAPE_REPRESENTATION_RELATIONSHIP('','',#264,#37);
#36=ADVANCED_BREP_SHAPE_REPRESENTATION('',(#257),#450);
#37=ADVANCED_BREP_SHAPE_REPRESENTATION('',(#258),#451);
#38=CYLINDRICAL_SURFACE('',#269,130.5);
#39=CYLINDRICAL_SURFACE('',#273,136.5);
#40=CYLINDRICAL_SURFACE('',#278,150.5);
#41=CYLINDRICAL_SURFACE('',#295,139.5);
#42=CYLINDRICAL_SURFACE('',#296,130.5);
#43=CYLINDRICAL_SURFACE('',#300,136.5);
#44=ORIENTED_EDGE('',*,*,#82,.F.);
#45=ORIENTED_EDGE('',*,*,#83,.T.);
#46=ORIENTED_EDGE('',*,*,#84,.F.);
#47=ORIENTED_EDGE('',*,*,#82,.T.);
#48=ORIENTED_EDGE('',*,*,#85,.F.);
#49=ORIENTED_EDGE('',*,*,#84,.T.);
#50=ORIENTED_EDGE('',*,*,#83,.F.);
#51=ORIENTED_EDGE('',*,*,#85,.T.);
#52=ORIENTED_EDGE('',*,*,#86,.T.);
#53=ORIENTED_EDGE('',*,*,#87,.F.);
#54=ORIENTED_EDGE('',*,*,#88,.F.);
#55=ORIENTED_EDGE('',*,*,#89,.T.);
#56=ORIENTED_EDGE('',*,*,#90,.F.);
#57=ORIENTED_EDGE('',*,*,#91,.F.);
#58=ORIENTED_EDGE('',*,*,#92,.F.);
#59=ORIENTED_EDGE('',*,*,#93,.T.);
#60=ORIENTED_EDGE('',*,*,#94,.F.);
#61=ORIENTED_EDGE('',*,*,#95,.T.);
#62=ORIENTED_EDGE('',*,*,#96,.F.);
#63=ORIENTED_EDGE('',*,*,#97,.T.);
#64=ORIENTED_EDGE('',*,*,#91,.T.);
#65=ORIENTED_EDGE('',*,*,#98,.T.);
#66=ORIENTED_EDGE('',*,*,#93,.F.);
#67=ORIENTED_EDGE('',*,*,#90,.T.);
#68=ORIENTED_EDGE('',*,*,#99,.T.);
#69=ORIENTED_EDGE('',*,*,#94,.T.);
#70=ORIENTED_EDGE('',*,*,#88,.T.);
#71=ORIENTED_EDGE('',*,*,#86,.F.);
#72=ORIENTED_EDGE('',*,*,#87,.T.);
#73=ORIENTED_EDGE('',*,*,#99,.F.);
#74=ORIENTED_EDGE('',*,*,#100,.F.);
#75=ORIENTED_EDGE('',*,*,#96,.T.);
#76=ORIENTED_EDGE('',*,*,#100,.T.);
#77=ORIENTED_EDGE('',*,*,#95,.F.);
#78=ORIENTED_EDGE('',*,*,#98,.F.);
#79=ORIENTED_EDGE('',*,*,#89,.F.);
#80=ORIENTED_EDGE('',*,*,#97,.F.);
#81=ORIENTED_EDGE('',*,*,#92,.T.);
#82=EDGE_CURVE('',#101,#101,#120,.T.);
#83=EDGE_CURVE('',#102,#102,#121,.T.);
#84=EDGE_CURVE('',#103,#103,#122,.T.);
#85=EDGE_CURVE('',#104,#104,#123,.T.);
#86=EDGE_CURVE('',#105,#105,#124,.T.);
#87=EDGE_CURVE('',#106,#106,#125,.T.);
#88=EDGE_CURVE('',#107,#107,#126,.T.);
#89=EDGE_CURVE('',#108,#108,#127,.T.);
#90=EDGE_CURVE('',#109,#109,#128,.T.);
#91=EDGE_CURVE('',#110,#110,#129,.T.);
#92=EDGE_CURVE('',#111,#111,#130,.T.);
#93=EDGE_CURVE('',#112,#112,#131,.T.);
#94=EDGE_CURVE('',#113,#113,#132,.T.);
#95=EDGE_CURVE('',#114,#114,#133,.T.);
#96=EDGE_CURVE('',#115,#115,#134,.T.);
#97=EDGE_CURVE('',#116,#116,#135,.T.);
#98=EDGE_CURVE('',#117,#117,#136,.T.);
#99=EDGE_CURVE('',#118,#118,#137,.T.);
#100=EDGE_CURVE('',#119,#119,#138,.T.);
#101=VERTEX_POINT('',#391);
#102=VERTEX_POINT('',#393);
#103=VERTEX_POINT('',#396);
#104=VERTEX_POINT('',#399);
#105=VERTEX_POINT('',#404);
#106=VERTEX_POINT('',#406);
#107=VERTEX_POINT('',#409);
#108=VERTEX_POINT('',#411);
#109=VERTEX_POINT('',#414);
#110=VERTEX_POINT('',#416);
#111=VERTEX_POINT('',#419);
#112=VERTEX_POINT('',#421);
#113=VERTEX_POINT('',#424);
#114=VERTEX_POINT('',#426);
#115=VERTEX_POINT('',#429);
#116=VERTEX_POINT('',#431);
#117=VERTEX_POINT('',#434);
#118=VERTEX_POINT('',#438);
#119=VERTEX_POINT('',#443);
#120=CIRCLE('',#267,130.5);
#121=CIRCLE('',#268,136.5);
#122=CIRCLE('',#270,130.5);
#123=CIRCLE('',#272,136.5);
#124=CIRCLE('',#276,150.);
#125=CIRCLE('',#277,131.);
#126=CIRCLE('',#279,150.5);
#127=CIRCLE('',#280,150.5);
#128=CIRCLE('',#282,139.5);
#129=CIRCLE('',#283,140.157979856674);
#130=CIRCLE('',#285,138.5);
#131=CIRCLE('',#286,139.5);
#132=CIRCLE('',#288,130.5);
#133=CIRCLE('',#289,130.7);
#134=CIRCLE('',#291,136.5);
#135=CIRCLE('',#292,136.7);
#136=CIRCLE('',#294,149.184040286651);
#137=CIRCLE('',#297,130.5);
#138=CIRCLE('',#301,136.5);
#139=EDGE_LOOP('',(#44));
#140=EDGE_LOOP('',(#45));
#141=EDGE_LOOP('',(#46));
#142=EDGE_LOOP('',(#47));
#143=EDGE_LOOP('',(#48));
#144=EDGE_LOOP('',(#49));
#145=EDGE_LOOP('',(#50));
#146=EDGE_LOOP('',(#51));
#147=EDGE_LOOP('',(#52));
#148=EDGE_LOOP('',(#53));
#149=EDGE_LOOP('',(#54));
#150=EDGE_LOOP('',(#55));
#151=EDGE_LOOP('',(#56));
#152=EDGE_LOOP('',(#57));
#153=EDGE_LOOP('',(#58));
#154=EDGE_LOOP('',(#59));
#155=EDGE_LOOP('',(#60));
#156=EDGE_LOOP('',(#61));
#157=EDGE_LOOP('',(#62));
#158=EDGE_LOOP('',(#63));
#159=EDGE_LOOP('',(#64));
#160=EDGE_LOOP('',(#65));
#161=EDGE_LOOP('',(#66));
#162=EDGE_LOOP('',(#67));
#163=EDGE_LOOP('',(#68));
#164=EDGE_LOOP('',(#69));
#165=EDGE_LOOP('',(#70));
#166=EDGE_LOOP('',(#71));
#167=EDGE_LOOP('',(#72));
#168=EDGE_LOOP('',(#73));
#169=EDGE_LOOP('',(#74));
#170=EDGE_LOOP('',(#75));
#171=EDGE_LOOP('',(#76));
#172=EDGE_LOOP('',(#77));
#173=EDGE_LOOP('',(#78));
#174=EDGE_LOOP('',(#79));
#175=EDGE_LOOP('',(#80));
#176=EDGE_LOOP('',(#81));
#177=FACE_BOUND('',#139,.T.);
#178=FACE_BOUND('',#140,.T.);
#179=FACE_BOUND('',#141,.T.);
#180=FACE_BOUND('',#142,.T.);
#181=FACE_BOUND('',#143,.T.);
#182=FACE_BOUND('',#144,.T.);
#183=FACE_BOUND('',#145,.T.);
#184=FACE_BOUND('',#146,.T.);
#185=FACE_BOUND('',#147,.T.);
#186=FACE_BOUND('',#148,.T.);
#187=FACE_BOUND('',#149,.T.);
#188=FACE_BOUND('',#150,.T.);
#189=FACE_BOUND('',#151,.T.);
#190=FACE_BOUND('',#152,.T.);
#191=FACE_BOUND('',#153,.T.);
#192=FACE_BOUND('',#154,.T.);
#193=FACE_BOUND('',#155,.T.);
#194=FACE_BOUND('',#156,.T.);
#195=FACE_BOUND('',#157,.T.);
#196=FACE_BOUND('',#158,.T.);
#197=FACE_BOUND('',#159,.T.);
#198=FACE_BOUND('',#160,.T.);
#199=FACE_BOUND('',#161,.T.);
#200=FACE_BOUND('',#162,.T.);
#201=FACE_BOUND('',#163,.T.);
#202=FACE_BOUND('',#164,.T.);
#203=FACE_BOUND('',#165,.T.);
#204=FACE_BOUND('',#166,.T.);
#205=FACE_BOUND('',#167,.T.);
#206=FACE_BOUND('',#168,.T.);
#207=FACE_BOUND('',#169,.T.);
#208=FACE_BOUND('',#170,.T.);
#209=FACE_BOUND('',#171,.T.);
#210=FACE_BOUND('',#172,.T.);
#211=FACE_BOUND('',#173,.T.);
#212=FACE_BOUND('',#174,.T.);
#213=FACE_BOUND('',#175,.T.);
#214=FACE_BOUND('',#176,.T.);
#215=PLANE('',#266);
#216=PLANE('',#271);
#217=PLANE('',#275);
#218=PLANE('',#302);
#219=PLANE('',#304);
#220=ADVANCED_FACE('',(#177,#178),#215,.F.);
#221=ADVANCED_FACE('',(#179,#180),#38,.F.);
#222=ADVANCED_FACE('',(#181,#182),#216,.F.);
#223=ADVANCED_FACE('',(#183,#184),#39,.T.);
#224=ADVANCED_FACE('',(#185,#186),#217,.T.);
#225=ADVANCED_FACE('',(#187,#188),#40,.T.);
#226=ADVANCED_FACE('',(#189,#190),#24,.F.);
#227=ADVANCED_FACE('',(#191,#192),#18,.T.);
#228=ADVANCED_FACE('',(#193,#194),#19,.F.);
#229=ADVANCED_FACE('',(#195,#196),#20,.F.);
#230=ADVANCED_FACE('',(#197,#198),#21,.T.);
#231=ADVANCED_FACE('',(#199,#200),#41,.T.);
#232=ADVANCED_FACE('',(#201,#202),#42,.F.);
#233=ADVANCED_FACE('',(#203,#204),#22,.T.);
#234=ADVANCED_FACE('',(#205,#206),#23,.F.);
#235=ADVANCED_FACE('',(#207,#208),#43,.F.);
#236=ADVANCED_FACE('',(#209,#210),#218,.T.);
#237=ADVANCED_FACE('',(#211,#212),#25,.T.);
#238=ADVANCED_FACE('',(#213,#214),#219,.T.);
#239=CLOSED_SHELL('',(#220,#221,#222,#223));
#240=CLOSED_SHELL('',(#224,#225,#226,#227,#228,#229,#230,#231,#232,#233,
#234,#235,#236,#237,#238));
#241=STYLED_ITEM('',(#243),#257);
#242=STYLED_ITEM('',(#244),#258);
#243=PRESENTATION_STYLE_ASSIGNMENT((#245));
#244=PRESENTATION_STYLE_ASSIGNMENT((#246));
#245=SURFACE_STYLE_USAGE(.BOTH.,#247);
#246=SURFACE_STYLE_USAGE(.BOTH.,#248);
#247=SURFACE_SIDE_STYLE('',(#249));
#248=SURFACE_SIDE_STYLE('',(#250));
#249=SURFACE_STYLE_FILL_AREA(#251);
#250=SURFACE_STYLE_FILL_AREA(#252);
#251=FILL_AREA_STYLE('',(#253));
#252=FILL_AREA_STYLE('',(#254));
#253=FILL_AREA_STYLE_COLOUR('',#255);
#254=FILL_AREA_STYLE_COLOUR('',#256);
#255=COLOUR_RGB('',0.506983280181885,0.531564235687256,0.550000011920929);
#256=COLOUR_RGB('',0.517647087574005,0.517647087574005,0.517647087574005);
#257=MANIFOLD_SOLID_BREP('',#239);
#258=MANIFOLD_SOLID_BREP('1',#240);
#259=SHAPE_DEFINITION_REPRESENTATION(#459,#262);
#260=SHAPE_DEFINITION_REPRESENTATION(#458,#263);
#261=SHAPE_DEFINITION_REPRESENTATION(#461,#264);
#262=SHAPE_REPRESENTATION('33.250003.222.325-Rohr',(#265),#450);
#263=SHAPE_REPRESENTATION('33.250003.222.325',(#265,#274,#305),#449);
#264=SHAPE_REPRESENTATION('32.250003.210.325',(#265),#451);
#265=AXIS2_PLACEMENT_3D('',#388,#306,#307);
#266=AXIS2_PLACEMENT_3D('',#389,#308,#309);
#267=AXIS2_PLACEMENT_3D('',#390,#310,#311);
#268=AXIS2_PLACEMENT_3D('',#392,#312,#313);
#269=AXIS2_PLACEMENT_3D('',#394,#314,#315);
#270=AXIS2_PLACEMENT_3D('',#395,#316,#317);
#271=AXIS2_PLACEMENT_3D('',#397,#318,#319);
#272=AXIS2_PLACEMENT_3D('',#398,#320,#321);
#273=AXIS2_PLACEMENT_3D('',#400,#322,#323);
#274=AXIS2_PLACEMENT_3D('',#401,#324,#325);
#275=AXIS2_PLACEMENT_3D('',#402,#326,#327);
#276=AXIS2_PLACEMENT_3D('',#403,#328,#329);
#277=AXIS2_PLACEMENT_3D('',#405,#330,#331);
#278=AXIS2_PLACEMENT_3D('',#407,#332,#333);
#279=AXIS2_PLACEMENT_3D('',#408,#334,#335);
#280=AXIS2_PLACEMENT_3D('',#410,#336,#337);
#281=AXIS2_PLACEMENT_3D('',#412,#338,#339);
#282=AXIS2_PLACEMENT_3D('',#413,#340,#341);
#283=AXIS2_PLACEMENT_3D('',#415,#342,#343);
#284=AXIS2_PLACEMENT_3D('',#417,#344,#345);
#285=AXIS2_PLACEMENT_3D('',#418,#346,#347);
#286=AXIS2_PLACEMENT_3D('',#420,#348,#349);
#287=AXIS2_PLACEMENT_3D('',#422,#350,#351);
#288=AXIS2_PLACEMENT_3D('',#423,#352,#353);
#289=AXIS2_PLACEMENT_3D('',#425,#354,#355);
#290=AXIS2_PLACEMENT_3D('',#427,#356,#357);
#291=AXIS2_PLACEMENT_3D('',#428,#358,#359);
#292=AXIS2_PLACEMENT_3D('',#430,#360,#361);
#293=AXIS2_PLACEMENT_3D('',#432,#362,#363);
#294=AXIS2_PLACEMENT_3D('',#433,#364,#365);
#295=AXIS2_PLACEMENT_3D('',#435,#366,#367);
#296=AXIS2_PLACEMENT_3D('',#436,#368,#369);
#297=AXIS2_PLACEMENT_3D('',#437,#370,#371);
#298=AXIS2_PLACEMENT_3D('',#439,#372,#373);
#299=AXIS2_PLACEMENT_3D('',#440,#374,#375);
#300=AXIS2_PLACEMENT_3D('',#441,#376,#377);
#301=AXIS2_PLACEMENT_3D('',#442,#378,#379);
#302=AXIS2_PLACEMENT_3D('',#444,#380,#381);
#303=AXIS2_PLACEMENT_3D('',#445,#382,#383);
#304=AXIS2_PLACEMENT_3D('',#446,#384,#385);
#305=AXIS2_PLACEMENT_3D('',#447,#386,#387);
#306=DIRECTION('',(0.,0.,1.));
#307=DIRECTION('',(1.,0.,0.));
#308=DIRECTION('',(1.,0.,0.));
#309=DIRECTION('',(0.,0.,-1.));
#310=DIRECTION('',(-1.,0.,0.));
#311=DIRECTION('',(0.,0.,1.));
#312=DIRECTION('',(-1.,0.,0.));
#313=DIRECTION('',(0.,0.,1.));
#314=DIRECTION('',(-1.,0.,0.));
#315=DIRECTION('',(0.,0.,1.));
#316=DIRECTION('',(-1.,0.,0.));
#317=DIRECTION('',(0.,0.,1.));
#318=DIRECTION('',(-1.,0.,0.));
#319=DIRECTION('',(0.,0.,1.));
#320=DIRECTION('',(-1.,0.,0.));
#321=DIRECTION('',(0.,0.,1.));
#322=DIRECTION('',(-1.,0.,0.));
#323=DIRECTION('',(0.,0.,1.));
#324=DIRECTION('',(0.,0.,1.));
#325=DIRECTION('',(1.,0.,0.));
#326=DIRECTION('',(1.,0.,0.));
#327=DIRECTION('',(0.,0.,-1.));
#328=DIRECTION('',(1.,0.,0.));
#329=DIRECTION('',(0.,0.,-1.));
#330=DIRECTION('',(1.,0.,0.));
#331=DIRECTION('',(0.,0.,-1.));
#332=DIRECTION('',(1.,0.,0.));
#333=DIRECTION('',(0.,0.,1.));
#334=DIRECTION('',(1.,0.,0.));
#335=DIRECTION('',(0.,0.,-1.));
#336=DIRECTION('',(1.,0.,0.));
#337=DIRECTION('',(0.,0.,-1.));
#338=DIRECTION('',(-1.,0.,0.));
#339=DIRECTION('',(0.,0.,1.));
#340=DIRECTION('',(-1.,0.,0.));
#341=DIRECTION('',(0.,0.,1.));
#342=DIRECTION('',(1.,0.,0.));
#343=DIRECTION('',(0.,0.,-1.));
#344=DIRECTION('',(1.,0.,0.));
#345=DIRECTION('',(0.,0.,-1.));
#346=DIRECTION('',(-1.,0.,0.));
#347=DIRECTION('',(0.,0.,1.));
#348=DIRECTION('',(-1.,0.,0.));
#349=DIRECTION('',(0.,0.,1.));
#350=DIRECTION('',(-1.,0.,0.));
#351=DIRECTION('',(0.,0.,1.));
#352=DIRECTION('',(-1.,0.,0.));
#353=DIRECTION('',(0.,0.,1.));
#354=DIRECTION('',(-1.,0.,0.));
#355=DIRECTION('',(0.,0.,1.));
#356=DIRECTION('',(-1.,0.,0.));
#357=DIRECTION('',(0.,0.,1.));
#358=DIRECTION('',(-1.,0.,0.));
#359=DIRECTION('',(0.,0.,1.));
#360=DIRECTION('',(-1.,0.,0.));
#361=DIRECTION('',(0.,0.,1.));
#362=DIRECTION('',(1.,0.,0.));
#363=DIRECTION('',(0.,0.,-1.));
#364=DIRECTION('',(-1.,0.,0.));
#365=DIRECTION('',(0.,0.,1.));
#366=DIRECTION('',(1.,0.,0.));
#367=DIRECTION('',(0.,0.,1.));
#368=DIRECTION('',(1.,0.,0.));
#369=DIRECTION('',(0.,0.,1.));
#370=DIRECTION('',(1.,0.,0.));
#371=DIRECTION('',(0.,0.,-1.));
#372=DIRECTION('',(-1.,0.,0.));
#373=DIRECTION('',(0.,0.,1.));
#374=DIRECTION('',(1.,0.,0.));
#375=DIRECTION('',(0.,0.,-1.));
#376=DIRECTION('',(1.,0.,0.));
#377=DIRECTION('',(0.,0.,1.));
#378=DIRECTION('',(-1.,0.,0.));
#379=DIRECTION('',(0.,0.,1.));
#380=DIRECTION('',(-1.,0.,0.));
#381=DIRECTION('',(0.,0.,1.));
#382=DIRECTION('',(1.,0.,0.));
#383=DIRECTION('',(0.,0.,-1.));
#384=DIRECTION('',(-1.,0.,0.));
#385=DIRECTION('',(0.,0.,1.));
#386=DIRECTION('',(-3.33893309350341E-17,0.235329511158313,0.971915645093745));
#387=DIRECTION('',(1.,8.45677694538692E-17,1.38777878078145E-17));
#388=CARTESIAN_POINT('',(0.,0.,0.));
#389=CARTESIAN_POINT('',(-42.5,0.,136.5));
#390=CARTESIAN_POINT('',(-42.5,0.,0.));
#391=CARTESIAN_POINT('',(-42.5,0.,130.5));
#392=CARTESIAN_POINT('',(-42.5,0.,0.));
#393=CARTESIAN_POINT('',(-42.5,0.,136.5));
#394=CARTESIAN_POINT('',(0.,0.,0.));
#395=CARTESIAN_POINT('',(42.5,0.,0.));
#396=CARTESIAN_POINT('',(42.5,0.,130.5));
#397=CARTESIAN_POINT('',(42.5,0.,130.5));
#398=CARTESIAN_POINT('',(42.5,0.,0.));
#399=CARTESIAN_POINT('',(42.5,0.,136.5));
#400=CARTESIAN_POINT('',(0.,0.,0.));
#401=CARTESIAN_POINT('',(0.,0.,0.));
#402=CARTESIAN_POINT('',(30.5248444855661,0.,150.5));
#403=CARTESIAN_POINT('',(30.5248444855661,0.,0.));
#404=CARTESIAN_POINT('',(30.5248444855661,0.,-150.));
#405=CARTESIAN_POINT('',(30.5248444855661,0.,0.));
#406=CARTESIAN_POINT('',(30.5248444855661,0.,-131.));
#407=CARTESIAN_POINT('',(-60.,0.,0.));
#408=CARTESIAN_POINT('',(30.0248444855661,0.,0.));
#409=CARTESIAN_POINT('',(30.0248444855661,0.,-150.5));
#410=CARTESIAN_POINT('',(23.7852595619855,0.,0.));
#411=CARTESIAN_POINT('',(23.7852595619855,0.,-150.5));
#412=CARTESIAN_POINT('',(17.6809643704282,0.,0.));
#413=CARTESIAN_POINT('',(17.6809643704282,0.,0.));
#414=CARTESIAN_POINT('',(17.6809643704282,0.,139.5));
#415=CARTESIAN_POINT('',(18.6206569912141,0.,0.));
#416=CARTESIAN_POINT('',(18.6206569912141,0.,-140.157979856674));
#417=CARTESIAN_POINT('',(10.5248444855661,0.,0.));
#418=CARTESIAN_POINT('',(10.5248444855661,0.,0.));
#419=CARTESIAN_POINT('',(10.5248444855661,0.,138.5));
#420=CARTESIAN_POINT('',(11.5248444855661,0.,0.));
#421=CARTESIAN_POINT('',(11.5248444855661,0.,139.5));
#422=CARTESIAN_POINT('',(15.7248444855661,0.,0.));
#423=CARTESIAN_POINT('',(15.7248444855661,0.,0.));
#424=CARTESIAN_POINT('',(15.7248444855661,0.,130.5));
#425=CARTESIAN_POINT('',(15.524844485566,0.,0.));
#426=CARTESIAN_POINT('',(15.524844485566,0.,130.7));
#427=CARTESIAN_POINT('',(10.7248444855661,0.,0.));
#428=CARTESIAN_POINT('',(10.7248444855661,0.,0.));
#429=CARTESIAN_POINT('',(10.7248444855661,0.,136.5));
#430=CARTESIAN_POINT('',(10.5248444855661,0.,0.));
#431=CARTESIAN_POINT('',(10.5248444855661,0.,136.7));
#432=CARTESIAN_POINT('',(18.3811719086379,0.,0.));
#433=CARTESIAN_POINT('',(21.9058743204137,0.,0.));
#434=CARTESIAN_POINT('',(21.9058743204137,0.,149.184040286651));
#435=CARTESIAN_POINT('',(-60.,0.,0.));
#436=CARTESIAN_POINT('',(-60.,0.,0.));
#437=CARTESIAN_POINT('',(30.0248444855661,0.,0.));
#438=CARTESIAN_POINT('',(30.0248444855661,0.,-130.5));
#439=CARTESIAN_POINT('',(30.0248444855661,0.,0.));
#440=CARTESIAN_POINT('',(30.5248444855661,0.,0.));
#441=CARTESIAN_POINT('',(-60.,0.,0.));
#442=CARTESIAN_POINT('',(15.524844485566,0.,0.));
#443=CARTESIAN_POINT('',(15.524844485566,0.,136.5));
#444=CARTESIAN_POINT('',(15.524844485566,0.,130.5));
#445=CARTESIAN_POINT('',(23.7852595619855,0.,0.));
#446=CARTESIAN_POINT('',(10.5248444855661,0.,139.5));
#447=CARTESIAN_POINT('',(26.975155514434,-1.31290146926252E-15,-2.15450497520005E-16));
#448=MECHANICAL_DESIGN_GEOMETRIC_PRESENTATION_REPRESENTATION('',(#241,#242),
#449);
#449=(
GEOMETRIC_REPRESENTATION_CONTEXT(3)
GLOBAL_UNCERTAINTY_ASSIGNED_CONTEXT((#452))
GLOBAL_UNIT_ASSIGNED_CONTEXT((#457,#456,#455))
REPRESENTATION_CONTEXT('33.250003.222.325','TOP_LEVEL_ASSEMBLY_PART')
);
#450=(
GEOMETRIC_REPRESENTATION_CONTEXT(3)
GLOBAL_UNCERTAINTY_ASSIGNED_CONTEXT((#453))
GLOBAL_UNIT_ASSIGNED_CONTEXT((#457,#456,#455))
REPRESENTATION_CONTEXT('33.250003.222.325-Rohr','COMPONENT_PART')
);
#451=(
GEOMETRIC_REPRESENTATION_CONTEXT(3)
GLOBAL_UNCERTAINTY_ASSIGNED_CONTEXT((#454))
GLOBAL_UNIT_ASSIGNED_CONTEXT((#457,#456,#455))
REPRESENTATION_CONTEXT('32.250003.210.325','COMPONENT_PART')
);
#452=UNCERTAINTY_MEASURE_WITH_UNIT(LENGTH_MEASURE(0.005),#457,
'DISTANCE_ACCURACY_VALUE','Maximum Tolerance applied to model');
#453=UNCERTAINTY_MEASURE_WITH_UNIT(LENGTH_MEASURE(0.005),#457,
'DISTANCE_ACCURACY_VALUE','Maximum Tolerance applied to model');
#454=UNCERTAINTY_MEASURE_WITH_UNIT(LENGTH_MEASURE(0.005),#457,
'DISTANCE_ACCURACY_VALUE','Maximum Tolerance applied to model');
#455=(
NAMED_UNIT(*)
SI_UNIT($,.STERADIAN.)
SOLID_ANGLE_UNIT()
);
#456=(
NAMED_UNIT(*)
PLANE_ANGLE_UNIT()
SI_UNIT($,.RADIAN.)
);
#457=(
LENGTH_UNIT()
NAMED_UNIT(*)
SI_UNIT(.MILLI.,.METRE.)
);
#458=PRODUCT_DEFINITION_SHAPE('','',#463);
#459=PRODUCT_DEFINITION_SHAPE('','',#464);
#460=PRODUCT_DEFINITION_SHAPE(' ','NAUO PRDDFN',#28);
#461=PRODUCT_DEFINITION_SHAPE('','',#465);
#462=PRODUCT_DEFINITION_SHAPE(' ','NAUO PRDDFN',#29);
#463=PRODUCT_DEFINITION('','',#469,#466);
#464=PRODUCT_DEFINITION('','',#470,#467);
#465=PRODUCT_DEFINITION('','',#471,#468);
#466=PRODUCT_DEFINITION_CONTEXT('',#485,'design');
#467=PRODUCT_DEFINITION_CONTEXT('',#485,'design');
#468=PRODUCT_DEFINITION_CONTEXT('',#485,'design');
#469=PRODUCT_DEFINITION_FORMATION_WITH_SPECIFIED_SOURCE('','',#475,
 .NOT_KNOWN.);
#470=PRODUCT_DEFINITION_FORMATION_WITH_SPECIFIED_SOURCE('','',#476,
 .NOT_KNOWN.);
#471=PRODUCT_DEFINITION_FORMATION_WITH_SPECIFIED_SOURCE('','',#477,
 .NOT_KNOWN.);
#472=PRODUCT_RELATED_PRODUCT_CATEGORY('','',(#475));
#473=PRODUCT_RELATED_PRODUCT_CATEGORY('','',(#476));
#474=PRODUCT_RELATED_PRODUCT_CATEGORY('','',(#477));
#475=PRODUCT('33.250003.222.325','33.250003.222.325',
'33.250003.222.325',(#481));
#476=PRODUCT('33.250003.222.325-Rohr','33.250003.222.325-Rohr',
'33.250003.222.325-Rohr',(#482));
#477=PRODUCT('32.250003.210.325','32.250003.210.325',
'32.250003.210.325',(#483));
#478=PRODUCT_CATEGORY('','');
#479=PRODUCT_CATEGORY('','');
#480=PRODUCT_CATEGORY('','');
#481=PRODUCT_CONTEXT('',#485,'mechanical');
#482=PRODUCT_CONTEXT('',#485,'mechanical');
#483=PRODUCT_CONTEXT('',#485,'mechanical');
#484=APPLICATION_PROTOCOL_DEFINITION('international standard',
'automotive_design',2010,#485);
#485=APPLICATION_CONTEXT(
'core data for automotive mechanical design processes');
ENDSEC;
END-ISO-10303-21;
