ISO-10303-21;
HEADER;
/* Generated by software containing ST-Developer
 * from STEP Tools, Inc. (www.steptools.com) 
 */
/* OPTION: strings as raw bytes, not using required /X/ escapes */

FILE_DESCRIPTION(
/* description */ (''),
/* implementation_level */ '2;1');

FILE_NAME(
/* name */ '33.250003.244.325',
/* time_stamp */ '2019-06-19T09:20:26+02:00',
/* author */ ('Murat Coskun Bicak'),
/* organization */ ('Evac AG'),
/* preprocessor_version */ 'ST-DEVELOPER v16.7',
/* originating_system */ 'DEX',
/* authorisation */ $);

FILE_SCHEMA (('AUTOMOTIVE_DESIGN {1 0 10303 214 3 1 1}'));
ENDSEC;

DATA;
#10=PROPERTY_DEFINITION_REPRESENTATION(#14,#12);
#11=PROPERTY_DEFINITION_REPRESENTATION(#15,#13);
#12=REPRESENTATION('',(#16),#457);
#13=REPRESENTATION('',(#17),#457);
#14=PROPERTY_DEFINITION('pmi validation property','',#466);
#15=PROPERTY_DEFINITION('pmi validation property','',#466);
#16=VALUE_REPRESENTATION_ITEM('number of annotations',COUNT_MEASURE(0.));
#17=VALUE_REPRESENTATION_ITEM('number of views',COUNT_MEASURE(0.));
#18=CONICAL_SURFACE('',#288,138.5,0.785398163397448);
#19=CONICAL_SURFACE('',#291,130.5,0.785398163397448);
#20=CONICAL_SURFACE('',#294,136.5,0.785398163397448);
#21=CONICAL_SURFACE('',#297,139.5,1.22173047639603);
#22=CONICAL_SURFACE('',#302,150.5,0.785398163397448);
#23=CONICAL_SURFACE('',#303,131.,0.785398163397448);
#24=TOROIDAL_SURFACE('',#285,140.5,1.);
#25=TOROIDAL_SURFACE('',#307,148.5,2.);
#26=CONTEXT_DEPENDENT_SHAPE_REPRESENTATION(#32,#468);
#27=CONTEXT_DEPENDENT_SHAPE_REPRESENTATION(#33,#470);
#28=CONTEXT_DEPENDENT_SHAPE_REPRESENTATION(#34,#471);
#29=NEXT_ASSEMBLY_USAGE_OCCURRENCE('33.250003.244.325-Rohr',
'33.250003.244.325-Rohr','33.250003.244.325-Rohr',#472,#473,'');
#30=NEXT_ASSEMBLY_USAGE_OCCURRENCE('32.250003.210.325',
'32.250003.210.325','32.250003.210.325',#472,#474,'');
#31=NEXT_ASSEMBLY_USAGE_OCCURRENCE('32.250003.210.325',
'32.250003.210.325','32.250003.210.325',#472,#474,'');
#32=(
REPRESENTATION_RELATIONSHIP(' ',' ',#266,#267)
REPRESENTATION_RELATIONSHIP_WITH_TRANSFORMATION(#35)
SHAPE_REPRESENTATION_RELATIONSHIP()
);
#33=(
REPRESENTATION_RELATIONSHIP(' ',' ',#268,#267)
REPRESENTATION_RELATIONSHIP_WITH_TRANSFORMATION(#36)
SHAPE_REPRESENTATION_RELATIONSHIP()
);
#34=(
REPRESENTATION_RELATIONSHIP(' ',' ',#268,#267)
REPRESENTATION_RELATIONSHIP_WITH_TRANSFORMATION(#37)
SHAPE_REPRESENTATION_RELATIONSHIP()
);
#35=ITEM_DEFINED_TRANSFORMATION(' ',' ',#269,#278);
#36=ITEM_DEFINED_TRANSFORMATION(' ',' ',#269,#309);
#37=ITEM_DEFINED_TRANSFORMATION(' ',' ',#269,#310);
#38=SHAPE_REPRESENTATION_RELATIONSHIP('','',#266,#40);
#39=SHAPE_REPRESENTATION_RELATIONSHIP('','',#268,#41);
#40=ADVANCED_BREP_SHAPE_REPRESENTATION('',(#261),#458);
#41=ADVANCED_BREP_SHAPE_REPRESENTATION('',(#262),#459);
#42=CYLINDRICAL_SURFACE('',#273,136.5);
#43=CYLINDRICAL_SURFACE('',#277,130.5);
#44=CYLINDRICAL_SURFACE('',#282,150.5);
#45=CYLINDRICAL_SURFACE('',#299,139.5);
#46=CYLINDRICAL_SURFACE('',#300,130.5);
#47=CYLINDRICAL_SURFACE('',#304,136.5);
#48=ORIENTED_EDGE('',*,*,#86,.T.);
#49=ORIENTED_EDGE('',*,*,#87,.F.);
#50=ORIENTED_EDGE('',*,*,#88,.T.);
#51=ORIENTED_EDGE('',*,*,#86,.F.);
#52=ORIENTED_EDGE('',*,*,#89,.T.);
#53=ORIENTED_EDGE('',*,*,#88,.F.);
#54=ORIENTED_EDGE('',*,*,#87,.T.);
#55=ORIENTED_EDGE('',*,*,#89,.F.);
#56=ORIENTED_EDGE('',*,*,#90,.T.);
#57=ORIENTED_EDGE('',*,*,#91,.F.);
#58=ORIENTED_EDGE('',*,*,#92,.F.);
#59=ORIENTED_EDGE('',*,*,#93,.T.);
#60=ORIENTED_EDGE('',*,*,#94,.F.);
#61=ORIENTED_EDGE('',*,*,#95,.F.);
#62=ORIENTED_EDGE('',*,*,#96,.F.);
#63=ORIENTED_EDGE('',*,*,#97,.T.);
#64=ORIENTED_EDGE('',*,*,#98,.F.);
#65=ORIENTED_EDGE('',*,*,#99,.T.);
#66=ORIENTED_EDGE('',*,*,#100,.F.);
#67=ORIENTED_EDGE('',*,*,#101,.T.);
#68=ORIENTED_EDGE('',*,*,#95,.T.);
#69=ORIENTED_EDGE('',*,*,#102,.T.);
#70=ORIENTED_EDGE('',*,*,#97,.F.);
#71=ORIENTED_EDGE('',*,*,#94,.T.);
#72=ORIENTED_EDGE('',*,*,#103,.T.);
#73=ORIENTED_EDGE('',*,*,#98,.T.);
#74=ORIENTED_EDGE('',*,*,#92,.T.);
#75=ORIENTED_EDGE('',*,*,#90,.F.);
#76=ORIENTED_EDGE('',*,*,#91,.T.);
#77=ORIENTED_EDGE('',*,*,#103,.F.);
#78=ORIENTED_EDGE('',*,*,#104,.F.);
#79=ORIENTED_EDGE('',*,*,#100,.T.);
#80=ORIENTED_EDGE('',*,*,#104,.T.);
#81=ORIENTED_EDGE('',*,*,#99,.F.);
#82=ORIENTED_EDGE('',*,*,#102,.F.);
#83=ORIENTED_EDGE('',*,*,#93,.F.);
#84=ORIENTED_EDGE('',*,*,#101,.F.);
#85=ORIENTED_EDGE('',*,*,#96,.T.);
#86=EDGE_CURVE('',#105,#105,#124,.T.);
#87=EDGE_CURVE('',#106,#106,#125,.T.);
#88=EDGE_CURVE('',#107,#107,#126,.T.);
#89=EDGE_CURVE('',#108,#108,#127,.T.);
#90=EDGE_CURVE('',#109,#109,#128,.T.);
#91=EDGE_CURVE('',#110,#110,#129,.T.);
#92=EDGE_CURVE('',#111,#111,#130,.T.);
#93=EDGE_CURVE('',#112,#112,#131,.T.);
#94=EDGE_CURVE('',#113,#113,#132,.T.);
#95=EDGE_CURVE('',#114,#114,#133,.T.);
#96=EDGE_CURVE('',#115,#115,#134,.T.);
#97=EDGE_CURVE('',#116,#116,#135,.T.);
#98=EDGE_CURVE('',#117,#117,#136,.T.);
#99=EDGE_CURVE('',#118,#118,#137,.T.);
#100=EDGE_CURVE('',#119,#119,#138,.T.);
#101=EDGE_CURVE('',#120,#120,#139,.T.);
#102=EDGE_CURVE('',#121,#121,#140,.T.);
#103=EDGE_CURVE('',#122,#122,#141,.T.);
#104=EDGE_CURVE('',#123,#123,#142,.T.);
#105=VERTEX_POINT('',#398);
#106=VERTEX_POINT('',#400);
#107=VERTEX_POINT('',#403);
#108=VERTEX_POINT('',#406);
#109=VERTEX_POINT('',#411);
#110=VERTEX_POINT('',#413);
#111=VERTEX_POINT('',#416);
#112=VERTEX_POINT('',#418);
#113=VERTEX_POINT('',#421);
#114=VERTEX_POINT('',#423);
#115=VERTEX_POINT('',#426);
#116=VERTEX_POINT('',#428);
#117=VERTEX_POINT('',#431);
#118=VERTEX_POINT('',#433);
#119=VERTEX_POINT('',#436);
#120=VERTEX_POINT('',#438);
#121=VERTEX_POINT('',#441);
#122=VERTEX_POINT('',#445);
#123=VERTEX_POINT('',#450);
#124=CIRCLE('',#271,136.5);
#125=CIRCLE('',#272,130.5);
#126=CIRCLE('',#274,136.5);
#127=CIRCLE('',#276,130.5);
#128=CIRCLE('',#280,150.);
#129=CIRCLE('',#281,131.);
#130=CIRCLE('',#283,150.5);
#131=CIRCLE('',#284,150.5);
#132=CIRCLE('',#286,139.5);
#133=CIRCLE('',#287,140.157979856674);
#134=CIRCLE('',#289,138.5);
#135=CIRCLE('',#290,139.5);
#136=CIRCLE('',#292,130.5);
#137=CIRCLE('',#293,130.7);
#138=CIRCLE('',#295,136.5);
#139=CIRCLE('',#296,136.7);
#140=CIRCLE('',#298,149.184040286651);
#141=CIRCLE('',#301,130.5);
#142=CIRCLE('',#305,136.5);
#143=EDGE_LOOP('',(#48));
#144=EDGE_LOOP('',(#49));
#145=EDGE_LOOP('',(#50));
#146=EDGE_LOOP('',(#51));
#147=EDGE_LOOP('',(#52));
#148=EDGE_LOOP('',(#53));
#149=EDGE_LOOP('',(#54));
#150=EDGE_LOOP('',(#55));
#151=EDGE_LOOP('',(#56));
#152=EDGE_LOOP('',(#57));
#153=EDGE_LOOP('',(#58));
#154=EDGE_LOOP('',(#59));
#155=EDGE_LOOP('',(#60));
#156=EDGE_LOOP('',(#61));
#157=EDGE_LOOP('',(#62));
#158=EDGE_LOOP('',(#63));
#159=EDGE_LOOP('',(#64));
#160=EDGE_LOOP('',(#65));
#161=EDGE_LOOP('',(#66));
#162=EDGE_LOOP('',(#67));
#163=EDGE_LOOP('',(#68));
#164=EDGE_LOOP('',(#69));
#165=EDGE_LOOP('',(#70));
#166=EDGE_LOOP('',(#71));
#167=EDGE_LOOP('',(#72));
#168=EDGE_LOOP('',(#73));
#169=EDGE_LOOP('',(#74));
#170=EDGE_LOOP('',(#75));
#171=EDGE_LOOP('',(#76));
#172=EDGE_LOOP('',(#77));
#173=EDGE_LOOP('',(#78));
#174=EDGE_LOOP('',(#79));
#175=EDGE_LOOP('',(#80));
#176=EDGE_LOOP('',(#81));
#177=EDGE_LOOP('',(#82));
#178=EDGE_LOOP('',(#83));
#179=EDGE_LOOP('',(#84));
#180=EDGE_LOOP('',(#85));
#181=FACE_BOUND('',#143,.T.);
#182=FACE_BOUND('',#144,.T.);
#183=FACE_BOUND('',#145,.T.);
#184=FACE_BOUND('',#146,.T.);
#185=FACE_BOUND('',#147,.T.);
#186=FACE_BOUND('',#148,.T.);
#187=FACE_BOUND('',#149,.T.);
#188=FACE_BOUND('',#150,.T.);
#189=FACE_BOUND('',#151,.T.);
#190=FACE_BOUND('',#152,.T.);
#191=FACE_BOUND('',#153,.T.);
#192=FACE_BOUND('',#154,.T.);
#193=FACE_BOUND('',#155,.T.);
#194=FACE_BOUND('',#156,.T.);
#195=FACE_BOUND('',#157,.T.);
#196=FACE_BOUND('',#158,.T.);
#197=FACE_BOUND('',#159,.T.);
#198=FACE_BOUND('',#160,.T.);
#199=FACE_BOUND('',#161,.T.);
#200=FACE_BOUND('',#162,.T.);
#201=FACE_BOUND('',#163,.T.);
#202=FACE_BOUND('',#164,.T.);
#203=FACE_BOUND('',#165,.T.);
#204=FACE_BOUND('',#166,.T.);
#205=FACE_BOUND('',#167,.T.);
#206=FACE_BOUND('',#168,.T.);
#207=FACE_BOUND('',#169,.T.);
#208=FACE_BOUND('',#170,.T.);
#209=FACE_BOUND('',#171,.T.);
#210=FACE_BOUND('',#172,.T.);
#211=FACE_BOUND('',#173,.T.);
#212=FACE_BOUND('',#174,.T.);
#213=FACE_BOUND('',#175,.T.);
#214=FACE_BOUND('',#176,.T.);
#215=FACE_BOUND('',#177,.T.);
#216=FACE_BOUND('',#178,.T.);
#217=FACE_BOUND('',#179,.T.);
#218=FACE_BOUND('',#180,.T.);
#219=PLANE('',#270);
#220=PLANE('',#275);
#221=PLANE('',#279);
#222=PLANE('',#306);
#223=PLANE('',#308);
#224=ADVANCED_FACE('',(#181,#182),#219,.T.);
#225=ADVANCED_FACE('',(#183,#184),#42,.T.);
#226=ADVANCED_FACE('',(#185,#186),#220,.T.);
#227=ADVANCED_FACE('',(#187,#188),#43,.F.);
#228=ADVANCED_FACE('',(#189,#190),#221,.T.);
#229=ADVANCED_FACE('',(#191,#192),#44,.T.);
#230=ADVANCED_FACE('',(#193,#194),#24,.F.);
#231=ADVANCED_FACE('',(#195,#196),#18,.T.);
#232=ADVANCED_FACE('',(#197,#198),#19,.F.);
#233=ADVANCED_FACE('',(#199,#200),#20,.F.);
#234=ADVANCED_FACE('',(#201,#202),#21,.T.);
#235=ADVANCED_FACE('',(#203,#204),#45,.T.);
#236=ADVANCED_FACE('',(#205,#206),#46,.F.);
#237=ADVANCED_FACE('',(#207,#208),#22,.T.);
#238=ADVANCED_FACE('',(#209,#210),#23,.F.);
#239=ADVANCED_FACE('',(#211,#212),#47,.F.);
#240=ADVANCED_FACE('',(#213,#214),#222,.T.);
#241=ADVANCED_FACE('',(#215,#216),#25,.T.);
#242=ADVANCED_FACE('',(#217,#218),#223,.T.);
#243=CLOSED_SHELL('',(#224,#225,#226,#227));
#244=CLOSED_SHELL('',(#228,#229,#230,#231,#232,#233,#234,#235,#236,#237,
#238,#239,#240,#241,#242));
#245=STYLED_ITEM('',(#247),#261);
#246=STYLED_ITEM('',(#248),#262);
#247=PRESENTATION_STYLE_ASSIGNMENT((#249));
#248=PRESENTATION_STYLE_ASSIGNMENT((#250));
#249=SURFACE_STYLE_USAGE(.BOTH.,#251);
#250=SURFACE_STYLE_USAGE(.BOTH.,#252);
#251=SURFACE_SIDE_STYLE('',(#253));
#252=SURFACE_SIDE_STYLE('',(#254));
#253=SURFACE_STYLE_FILL_AREA(#255);
#254=SURFACE_STYLE_FILL_AREA(#256);
#255=FILL_AREA_STYLE('',(#257));
#256=FILL_AREA_STYLE('',(#258));
#257=FILL_AREA_STYLE_COLOUR('',#259);
#258=FILL_AREA_STYLE_COLOUR('',#260);
#259=COLOUR_RGB('',0.506983280181885,0.531564235687256,0.550000011920929);
#260=COLOUR_RGB('',0.517647087574005,0.517647087574005,0.517647087574005);
#261=MANIFOLD_SOLID_BREP('',#243);
#262=MANIFOLD_SOLID_BREP('1',#244);
#263=SHAPE_DEFINITION_REPRESENTATION(#467,#266);
#264=SHAPE_DEFINITION_REPRESENTATION(#466,#267);
#265=SHAPE_DEFINITION_REPRESENTATION(#469,#268);
#266=SHAPE_REPRESENTATION('33.250003.244.325-Rohr',(#269),#458);
#267=SHAPE_REPRESENTATION('33.250003.244.325',(#269,#278,#309,#310),#457);
#268=SHAPE_REPRESENTATION('32.250003.210.325',(#269),#459);
#269=AXIS2_PLACEMENT_3D('',#395,#311,#312);
#270=AXIS2_PLACEMENT_3D('',#396,#313,#314);
#271=AXIS2_PLACEMENT_3D('',#397,#315,#316);
#272=AXIS2_PLACEMENT_3D('',#399,#317,#318);
#273=AXIS2_PLACEMENT_3D('',#401,#319,#320);
#274=AXIS2_PLACEMENT_3D('',#402,#321,#322);
#275=AXIS2_PLACEMENT_3D('',#404,#323,#324);
#276=AXIS2_PLACEMENT_3D('',#405,#325,#326);
#277=AXIS2_PLACEMENT_3D('',#407,#327,#328);
#278=AXIS2_PLACEMENT_3D('',#408,#329,#330);
#279=AXIS2_PLACEMENT_3D('',#409,#331,#332);
#280=AXIS2_PLACEMENT_3D('',#410,#333,#334);
#281=AXIS2_PLACEMENT_3D('',#412,#335,#336);
#282=AXIS2_PLACEMENT_3D('',#414,#337,#338);
#283=AXIS2_PLACEMENT_3D('',#415,#339,#340);
#284=AXIS2_PLACEMENT_3D('',#417,#341,#342);
#285=AXIS2_PLACEMENT_3D('',#419,#343,#344);
#286=AXIS2_PLACEMENT_3D('',#420,#345,#346);
#287=AXIS2_PLACEMENT_3D('',#422,#347,#348);
#288=AXIS2_PLACEMENT_3D('',#424,#349,#350);
#289=AXIS2_PLACEMENT_3D('',#425,#351,#352);
#290=AXIS2_PLACEMENT_3D('',#427,#353,#354);
#291=AXIS2_PLACEMENT_3D('',#429,#355,#356);
#292=AXIS2_PLACEMENT_3D('',#430,#357,#358);
#293=AXIS2_PLACEMENT_3D('',#432,#359,#360);
#294=AXIS2_PLACEMENT_3D('',#434,#361,#362);
#295=AXIS2_PLACEMENT_3D('',#435,#363,#364);
#296=AXIS2_PLACEMENT_3D('',#437,#365,#366);
#297=AXIS2_PLACEMENT_3D('',#439,#367,#368);
#298=AXIS2_PLACEMENT_3D('',#440,#369,#370);
#299=AXIS2_PLACEMENT_3D('',#442,#371,#372);
#300=AXIS2_PLACEMENT_3D('',#443,#373,#374);
#301=AXIS2_PLACEMENT_3D('',#444,#375,#376);
#302=AXIS2_PLACEMENT_3D('',#446,#377,#378);
#303=AXIS2_PLACEMENT_3D('',#447,#379,#380);
#304=AXIS2_PLACEMENT_3D('',#448,#381,#382);
#305=AXIS2_PLACEMENT_3D('',#449,#383,#384);
#306=AXIS2_PLACEMENT_3D('',#451,#385,#386);
#307=AXIS2_PLACEMENT_3D('',#452,#387,#388);
#308=AXIS2_PLACEMENT_3D('',#453,#389,#390);
#309=AXIS2_PLACEMENT_3D('',#454,#391,#392);
#310=AXIS2_PLACEMENT_3D('',#455,#393,#394);
#311=DIRECTION('',(0.,0.,1.));
#312=DIRECTION('',(1.,0.,0.));
#313=DIRECTION('',(-1.,0.,0.));
#314=DIRECTION('',(0.,0.,1.));
#315=DIRECTION('',(-1.,0.,0.));
#316=DIRECTION('',(0.,0.,1.));
#317=DIRECTION('',(-1.,0.,0.));
#318=DIRECTION('',(0.,0.,1.));
#319=DIRECTION('',(-1.,0.,0.));
#320=DIRECTION('',(0.,0.,1.));
#321=DIRECTION('',(-1.,0.,0.));
#322=DIRECTION('',(0.,0.,1.));
#323=DIRECTION('',(1.,0.,0.));
#324=DIRECTION('',(0.,0.,-1.));
#325=DIRECTION('',(-1.,0.,0.));
#326=DIRECTION('',(0.,0.,1.));
#327=DIRECTION('',(-1.,0.,0.));
#328=DIRECTION('',(0.,0.,1.));
#329=DIRECTION('',(0.,0.,1.));
#330=DIRECTION('',(1.,0.,0.));
#331=DIRECTION('',(1.,0.,0.));
#332=DIRECTION('',(0.,0.,-1.));
#333=DIRECTION('',(1.,0.,0.));
#334=DIRECTION('',(0.,0.,-1.));
#335=DIRECTION('',(1.,0.,0.));
#336=DIRECTION('',(0.,0.,-1.));
#337=DIRECTION('',(1.,0.,0.));
#338=DIRECTION('',(0.,0.,1.));
#339=DIRECTION('',(1.,0.,0.));
#340=DIRECTION('',(0.,0.,-1.));
#341=DIRECTION('',(1.,0.,0.));
#342=DIRECTION('',(0.,0.,-1.));
#343=DIRECTION('',(-1.,0.,0.));
#344=DIRECTION('',(0.,0.,1.));
#345=DIRECTION('',(-1.,0.,0.));
#346=DIRECTION('',(0.,0.,1.));
#347=DIRECTION('',(1.,0.,0.));
#348=DIRECTION('',(0.,0.,-1.));
#349=DIRECTION('',(1.,0.,0.));
#350=DIRECTION('',(0.,0.,-1.));
#351=DIRECTION('',(-1.,0.,0.));
#352=DIRECTION('',(0.,0.,1.));
#353=DIRECTION('',(-1.,0.,0.));
#354=DIRECTION('',(0.,0.,1.));
#355=DIRECTION('',(-1.,0.,0.));
#356=DIRECTION('',(0.,0.,1.));
#357=DIRECTION('',(-1.,0.,0.));
#358=DIRECTION('',(0.,0.,1.));
#359=DIRECTION('',(-1.,0.,0.));
#360=DIRECTION('',(0.,0.,1.));
#361=DIRECTION('',(-1.,0.,0.));
#362=DIRECTION('',(0.,0.,1.));
#363=DIRECTION('',(-1.,0.,0.));
#364=DIRECTION('',(0.,0.,1.));
#365=DIRECTION('',(-1.,0.,0.));
#366=DIRECTION('',(0.,0.,1.));
#367=DIRECTION('',(1.,0.,0.));
#368=DIRECTION('',(0.,0.,-1.));
#369=DIRECTION('',(-1.,0.,0.));
#370=DIRECTION('',(0.,0.,1.));
#371=DIRECTION('',(1.,0.,0.));
#372=DIRECTION('',(0.,0.,1.));
#373=DIRECTION('',(1.,0.,0.));
#374=DIRECTION('',(0.,0.,1.));
#375=DIRECTION('',(1.,0.,0.));
#376=DIRECTION('',(0.,0.,-1.));
#377=DIRECTION('',(-1.,0.,0.));
#378=DIRECTION('',(0.,0.,1.));
#379=DIRECTION('',(1.,0.,0.));
#380=DIRECTION('',(0.,0.,-1.));
#381=DIRECTION('',(1.,0.,0.));
#382=DIRECTION('',(0.,0.,1.));
#383=DIRECTION('',(-1.,0.,0.));
#384=DIRECTION('',(0.,0.,1.));
#385=DIRECTION('',(-1.,0.,0.));
#386=DIRECTION('',(0.,0.,1.));
#387=DIRECTION('',(1.,0.,0.));
#388=DIRECTION('',(0.,0.,-1.));
#389=DIRECTION('',(-1.,0.,0.));
#390=DIRECTION('',(0.,0.,1.));
#391=DIRECTION('',(-8.32667268468868E-17,5.55111512312578E-17,1.));
#392=DIRECTION('',(1.,-5.55111512312578E-17,8.32667268468868E-17));
#393=DIRECTION('',(-2.64961190964553E-17,0.924224592736303,0.381849318686593));
#394=DIRECTION('',(-1.,-4.93038065763132E-32,-6.93889390390723E-17));
#395=CARTESIAN_POINT('',(0.,0.,0.));
#396=CARTESIAN_POINT('',(-193.,0.,130.5));
#397=CARTESIAN_POINT('',(-193.,0.,0.));
#398=CARTESIAN_POINT('',(-193.,0.,136.5));
#399=CARTESIAN_POINT('',(-193.,0.,0.));
#400=CARTESIAN_POINT('',(-193.,0.,130.5));
#401=CARTESIAN_POINT('',(0.,0.,0.));
#402=CARTESIAN_POINT('',(193.,0.,0.));
#403=CARTESIAN_POINT('',(193.,0.,136.5));
#404=CARTESIAN_POINT('',(193.,0.,136.5));
#405=CARTESIAN_POINT('',(193.,0.,0.));
#406=CARTESIAN_POINT('',(193.,0.,130.5));
#407=CARTESIAN_POINT('',(0.,0.,0.));
#408=CARTESIAN_POINT('',(0.,0.,0.));
#409=CARTESIAN_POINT('',(30.5248444855661,0.,150.5));
#410=CARTESIAN_POINT('',(30.5248444855661,0.,0.));
#411=CARTESIAN_POINT('',(30.5248444855661,0.,-150.));
#412=CARTESIAN_POINT('',(30.5248444855661,0.,0.));
#413=CARTESIAN_POINT('',(30.5248444855661,0.,-131.));
#414=CARTESIAN_POINT('',(-60.,0.,0.));
#415=CARTESIAN_POINT('',(30.0248444855661,0.,0.));
#416=CARTESIAN_POINT('',(30.0248444855661,0.,-150.5));
#417=CARTESIAN_POINT('',(23.7852595619855,0.,0.));
#418=CARTESIAN_POINT('',(23.7852595619855,0.,-150.5));
#419=CARTESIAN_POINT('',(17.6809643704282,0.,0.));
#420=CARTESIAN_POINT('',(17.6809643704282,0.,0.));
#421=CARTESIAN_POINT('',(17.6809643704282,0.,139.5));
#422=CARTESIAN_POINT('',(18.6206569912141,0.,0.));
#423=CARTESIAN_POINT('',(18.6206569912141,0.,-140.157979856674));
#424=CARTESIAN_POINT('',(10.5248444855661,0.,0.));
#425=CARTESIAN_POINT('',(10.5248444855661,0.,0.));
#426=CARTESIAN_POINT('',(10.5248444855661,0.,138.5));
#427=CARTESIAN_POINT('',(11.5248444855661,0.,0.));
#428=CARTESIAN_POINT('',(11.5248444855661,0.,139.5));
#429=CARTESIAN_POINT('',(15.7248444855661,0.,0.));
#430=CARTESIAN_POINT('',(15.7248444855661,0.,0.));
#431=CARTESIAN_POINT('',(15.7248444855661,0.,130.5));
#432=CARTESIAN_POINT('',(15.524844485566,0.,0.));
#433=CARTESIAN_POINT('',(15.524844485566,0.,130.7));
#434=CARTESIAN_POINT('',(10.7248444855661,0.,0.));
#435=CARTESIAN_POINT('',(10.7248444855661,0.,0.));
#436=CARTESIAN_POINT('',(10.7248444855661,0.,136.5));
#437=CARTESIAN_POINT('',(10.5248444855661,0.,0.));
#438=CARTESIAN_POINT('',(10.5248444855661,0.,136.7));
#439=CARTESIAN_POINT('',(18.3811719086379,0.,0.));
#440=CARTESIAN_POINT('',(21.9058743204137,0.,0.));
#441=CARTESIAN_POINT('',(21.9058743204137,0.,149.184040286651));
#442=CARTESIAN_POINT('',(-60.,0.,0.));
#443=CARTESIAN_POINT('',(-60.,0.,0.));
#444=CARTESIAN_POINT('',(30.0248444855661,0.,0.));
#445=CARTESIAN_POINT('',(30.0248444855661,0.,-130.5));
#446=CARTESIAN_POINT('',(30.0248444855661,0.,0.));
#447=CARTESIAN_POINT('',(30.5248444855661,0.,0.));
#448=CARTESIAN_POINT('',(-60.,0.,0.));
#449=CARTESIAN_POINT('',(15.524844485566,0.,0.));
#450=CARTESIAN_POINT('',(15.524844485566,0.,136.5));
#451=CARTESIAN_POINT('',(15.524844485566,0.,130.5));
#452=CARTESIAN_POINT('',(23.7852595619855,0.,0.));
#453=CARTESIAN_POINT('',(10.5248444855661,0.,139.5));
#454=CARTESIAN_POINT('',(177.475155514434,8.6180199008001E-16,-1.29270298512002E-15));
#455=CARTESIAN_POINT('',(-177.475155514434,7.6543392964369E-31,1.07725248760002E-15));
#456=MECHANICAL_DESIGN_GEOMETRIC_PRESENTATION_REPRESENTATION('',(#245,#246),
#457);
#457=(
GEOMETRIC_REPRESENTATION_CONTEXT(3)
GLOBAL_UNCERTAINTY_ASSIGNED_CONTEXT((#460))
GLOBAL_UNIT_ASSIGNED_CONTEXT((#465,#464,#463))
REPRESENTATION_CONTEXT('33.250003.244.325','TOP_LEVEL_ASSEMBLY_PART')
);
#458=(
GEOMETRIC_REPRESENTATION_CONTEXT(3)
GLOBAL_UNCERTAINTY_ASSIGNED_CONTEXT((#461))
GLOBAL_UNIT_ASSIGNED_CONTEXT((#465,#464,#463))
REPRESENTATION_CONTEXT('33.250003.244.325-Rohr','COMPONENT_PART')
);
#459=(
GEOMETRIC_REPRESENTATION_CONTEXT(3)
GLOBAL_UNCERTAINTY_ASSIGNED_CONTEXT((#462))
GLOBAL_UNIT_ASSIGNED_CONTEXT((#465,#464,#463))
REPRESENTATION_CONTEXT('32.250003.210.325','COMPONENT_PART')
);
#460=UNCERTAINTY_MEASURE_WITH_UNIT(LENGTH_MEASURE(0.005),#465,
'DISTANCE_ACCURACY_VALUE','Maximum Tolerance applied to model');
#461=UNCERTAINTY_MEASURE_WITH_UNIT(LENGTH_MEASURE(0.005),#465,
'DISTANCE_ACCURACY_VALUE','Maximum Tolerance applied to model');
#462=UNCERTAINTY_MEASURE_WITH_UNIT(LENGTH_MEASURE(0.005),#465,
'DISTANCE_ACCURACY_VALUE','Maximum Tolerance applied to model');
#463=(
NAMED_UNIT(*)
SI_UNIT($,.STERADIAN.)
SOLID_ANGLE_UNIT()
);
#464=(
NAMED_UNIT(*)
PLANE_ANGLE_UNIT()
SI_UNIT($,.RADIAN.)
);
#465=(
LENGTH_UNIT()
NAMED_UNIT(*)
SI_UNIT(.MILLI.,.METRE.)
);
#466=PRODUCT_DEFINITION_SHAPE('','',#472);
#467=PRODUCT_DEFINITION_SHAPE('','',#473);
#468=PRODUCT_DEFINITION_SHAPE(' ','NAUO PRDDFN',#29);
#469=PRODUCT_DEFINITION_SHAPE('','',#474);
#470=PRODUCT_DEFINITION_SHAPE(' ','NAUO PRDDFN',#30);
#471=PRODUCT_DEFINITION_SHAPE(' ','NAUO PRDDFN',#31);
#472=PRODUCT_DEFINITION('','',#478,#475);
#473=PRODUCT_DEFINITION('','',#479,#476);
#474=PRODUCT_DEFINITION('','',#480,#477);
#475=PRODUCT_DEFINITION_CONTEXT('',#494,'design');
#476=PRODUCT_DEFINITION_CONTEXT('',#494,'design');
#477=PRODUCT_DEFINITION_CONTEXT('',#494,'design');
#478=PRODUCT_DEFINITION_FORMATION_WITH_SPECIFIED_SOURCE('','',#484,
 .NOT_KNOWN.);
#479=PRODUCT_DEFINITION_FORMATION_WITH_SPECIFIED_SOURCE('','',#485,
 .NOT_KNOWN.);
#480=PRODUCT_DEFINITION_FORMATION_WITH_SPECIFIED_SOURCE('','',#486,
 .NOT_KNOWN.);
#481=PRODUCT_RELATED_PRODUCT_CATEGORY('','',(#484));
#482=PRODUCT_RELATED_PRODUCT_CATEGORY('','',(#485));
#483=PRODUCT_RELATED_PRODUCT_CATEGORY('','',(#486));
#484=PRODUCT('33.250003.244.325','33.250003.244.325',
'33.250003.244.325',(#490));
#485=PRODUCT('33.250003.244.325-Rohr','33.250003.244.325-Rohr',
'33.250003.244.325-Rohr',(#491));
#486=PRODUCT('32.250003.210.325','32.250003.210.325',
'32.250003.210.325',(#492));
#487=PRODUCT_CATEGORY('','');
#488=PRODUCT_CATEGORY('','');
#489=PRODUCT_CATEGORY('','');
#490=PRODUCT_CONTEXT('',#494,'mechanical');
#491=PRODUCT_CONTEXT('',#494,'mechanical');
#492=PRODUCT_CONTEXT('',#494,'mechanical');
#493=APPLICATION_PROTOCOL_DEFINITION('international standard',
'automotive_design',2010,#494);
#494=APPLICATION_CONTEXT(
'core data for automotive mechanical design processes');
ENDSEC;
END-ISO-10303-21;
