ISO-10303-21;
HEADER;
/* Generated by software containing ST-Developer
 * from STEP Tools, Inc. (www.steptools.com) 
 */
/* OPTION: strings as raw bytes, not using required /X/ escapes */

FILE_DESCRIPTION(
/* description */ (''),
/* implementation_level */ '2;1');

FILE_NAME(
/* name */ '34.016037.121.816-IZ',
/* time_stamp */ '2019-05-16T10:56:36+02:00',
/* author */ ('Murat Coskun Bicak'),
/* organization */ ('Evac AG'),
/* preprocessor_version */ 'ST-DEVELOPER v16.7',
/* originating_system */ 'DEX',
/* authorisation */ $);

FILE_SCHEMA (('AUTOMOTIVE_DESIGN {1 0 10303 214 3 1 1}'));
ENDSEC;

DATA;
#10=PROPERTY_DEFINITION_REPRESENTATION(#14,#12);
#11=PROPERTY_DEFINITION_REPRESENTATION(#15,#13);
#12=REPRESENTATION('',(#16),#438);
#13=REPRESENTATION('',(#17),#438);
#14=PROPERTY_DEFINITION('pmi validation property','',#447);
#15=PROPERTY_DEFINITION('pmi validation property','',#447);
#16=VALUE_REPRESENTATION_ITEM('number of annotations',COUNT_MEASURE(0.));
#17=VALUE_REPRESENTATION_ITEM('number of views',COUNT_MEASURE(0.));
#18=VERTEX_LOOP('',#118);
#19=TOROIDAL_SURFACE('',#296,12.5,2.5);
#20=CONTEXT_DEPENDENT_SHAPE_REPRESENTATION(#24,#449);
#21=CONTEXT_DEPENDENT_SHAPE_REPRESENTATION(#25,#451);
#22=NEXT_ASSEMBLY_USAGE_OCCURRENCE('34.211.197-AL','34.211.197-AL',
'34.211.197-AL',#452,#453,'');
#23=NEXT_ASSEMBLY_USAGE_OCCURRENCE('34.016067.100.801',
'34.016067.100.801','34.016067.100.801',#452,#454,'');
#24=(
REPRESENTATION_RELATIONSHIP(' ',' ',#255,#256)
REPRESENTATION_RELATIONSHIP_WITH_TRANSFORMATION(#26)
SHAPE_REPRESENTATION_RELATIONSHIP()
);
#25=(
REPRESENTATION_RELATIONSHIP(' ',' ',#257,#256)
REPRESENTATION_RELATIONSHIP_WITH_TRANSFORMATION(#27)
SHAPE_REPRESENTATION_RELATIONSHIP()
);
#26=ITEM_DEFINED_TRANSFORMATION(' ',' ',#258,#295);
#27=ITEM_DEFINED_TRANSFORMATION(' ',' ',#258,#297);
#28=SHAPE_REPRESENTATION_RELATIONSHIP('','',#255,#30);
#29=SHAPE_REPRESENTATION_RELATIONSHIP('','',#257,#31);
#30=ADVANCED_BREP_SHAPE_REPRESENTATION('',(#250),#439);
#31=ADVANCED_BREP_SHAPE_REPRESENTATION('',(#251),#440);
#32=CONICAL_SURFACE('',#270,10.5,1.0471975511966);
#33=CONICAL_SURFACE('',#274,9.25,1.0471975511966);
#34=CONICAL_SURFACE('',#289,8.,0.785398163397449);
#35=CONICAL_SURFACE('',#290,8.35,0.785398163397449);
#36=CONICAL_SURFACE('',#291,8.2,0.785398163397449);
#37=CONICAL_SURFACE('',#292,8.55,0.785398163397449);
#38=CONICAL_SURFACE('',#293,10.4,0.785398163397445);
#39=CONICAL_SURFACE('',#294,10.5,0.785398163397445);
#40=CYLINDRICAL_SURFACE('',#262,8.55);
#41=CYLINDRICAL_SURFACE('',#267,10.5);
#42=CYLINDRICAL_SURFACE('',#272,9.25);
#43=CYLINDRICAL_SURFACE('',#276,10.5);
#44=CYLINDRICAL_SURFACE('',#281,8.55);
#45=CYLINDRICAL_SURFACE('',#286,8.);
#46=ORIENTED_EDGE('',*,*,#82,.T.);
#47=ORIENTED_EDGE('',*,*,#83,.T.);
#48=ORIENTED_EDGE('',*,*,#84,.T.);
#49=ORIENTED_EDGE('',*,*,#85,.F.);
#50=ORIENTED_EDGE('',*,*,#86,.T.);
#51=ORIENTED_EDGE('',*,*,#85,.T.);
#52=ORIENTED_EDGE('',*,*,#87,.T.);
#53=ORIENTED_EDGE('',*,*,#88,.F.);
#54=ORIENTED_EDGE('',*,*,#89,.F.);
#55=ORIENTED_EDGE('',*,*,#88,.T.);
#56=ORIENTED_EDGE('',*,*,#90,.F.);
#57=ORIENTED_EDGE('',*,*,#89,.T.);
#58=ORIENTED_EDGE('',*,*,#91,.F.);
#59=ORIENTED_EDGE('',*,*,#90,.T.);
#60=ORIENTED_EDGE('',*,*,#92,.T.);
#61=ORIENTED_EDGE('',*,*,#91,.T.);
#62=ORIENTED_EDGE('',*,*,#93,.T.);
#63=ORIENTED_EDGE('',*,*,#94,.F.);
#64=ORIENTED_EDGE('',*,*,#95,.T.);
#65=ORIENTED_EDGE('',*,*,#94,.T.);
#66=ORIENTED_EDGE('',*,*,#96,.T.);
#67=ORIENTED_EDGE('',*,*,#97,.T.);
#68=ORIENTED_EDGE('',*,*,#98,.T.);
#69=ORIENTED_EDGE('',*,*,#99,.T.);
#70=ORIENTED_EDGE('',*,*,#96,.F.);
#71=ORIENTED_EDGE('',*,*,#98,.F.);
#72=ORIENTED_EDGE('',*,*,#95,.F.);
#73=ORIENTED_EDGE('',*,*,#97,.F.);
#74=ORIENTED_EDGE('',*,*,#99,.F.);
#75=ORIENTED_EDGE('',*,*,#82,.F.);
#76=ORIENTED_EDGE('',*,*,#83,.F.);
#77=ORIENTED_EDGE('',*,*,#84,.F.);
#78=ORIENTED_EDGE('',*,*,#92,.F.);
#79=ORIENTED_EDGE('',*,*,#93,.F.);
#80=ORIENTED_EDGE('',*,*,#86,.F.);
#81=ORIENTED_EDGE('',*,*,#87,.F.);
#82=EDGE_CURVE('',#100,#100,#119,.T.);
#83=EDGE_CURVE('',#101,#101,#120,.F.);
#84=EDGE_CURVE('',#102,#102,#121,.T.);
#85=EDGE_CURVE('',#103,#103,#122,.T.);
#86=EDGE_CURVE('',#104,#104,#123,.F.);
#87=EDGE_CURVE('',#105,#105,#124,.T.);
#88=EDGE_CURVE('',#106,#106,#125,.T.);
#89=EDGE_CURVE('',#107,#107,#126,.T.);
#90=EDGE_CURVE('',#108,#108,#127,.T.);
#91=EDGE_CURVE('',#109,#109,#128,.T.);
#92=EDGE_CURVE('',#110,#110,#129,.T.);
#93=EDGE_CURVE('',#111,#111,#130,.F.);
#94=EDGE_CURVE('',#112,#112,#131,.T.);
#95=EDGE_CURVE('',#113,#113,#132,.T.);
#96=EDGE_CURVE('',#114,#114,#133,.T.);
#97=EDGE_CURVE('',#115,#115,#134,.F.);
#98=EDGE_CURVE('',#116,#116,#135,.F.);
#99=EDGE_CURVE('',#117,#117,#136,.F.);
#100=VERTEX_POINT('',#381);
#101=VERTEX_POINT('',#383);
#102=VERTEX_POINT('',#386);
#103=VERTEX_POINT('',#388);
#104=VERTEX_POINT('',#391);
#105=VERTEX_POINT('',#394);
#106=VERTEX_POINT('',#396);
#107=VERTEX_POINT('',#399);
#108=VERTEX_POINT('',#402);
#109=VERTEX_POINT('',#405);
#110=VERTEX_POINT('',#408);
#111=VERTEX_POINT('',#411);
#112=VERTEX_POINT('',#413);
#113=VERTEX_POINT('',#416);
#114=VERTEX_POINT('',#419);
#115=VERTEX_POINT('',#421);
#116=VERTEX_POINT('',#424);
#117=VERTEX_POINT('',#426);
#118=VERTEX_POINT('',#435);
#119=CIRCLE('',#260,8.2);
#120=CIRCLE('',#261,8.35);
#121=CIRCLE('',#263,8.55);
#122=CIRCLE('',#264,8.55);
#123=CIRCLE('',#266,10.4);
#124=CIRCLE('',#268,10.5);
#125=CIRCLE('',#269,10.5);
#126=CIRCLE('',#271,9.25);
#127=CIRCLE('',#273,9.25);
#128=CIRCLE('',#275,10.5);
#129=CIRCLE('',#277,10.5);
#130=CIRCLE('',#279,10.4);
#131=CIRCLE('',#280,8.55);
#132=CIRCLE('',#282,8.55);
#133=CIRCLE('',#284,8.2);
#134=CIRCLE('',#285,8.35);
#135=CIRCLE('',#287,8.);
#136=CIRCLE('',#288,8.);
#137=EDGE_LOOP('',(#46));
#138=EDGE_LOOP('',(#47));
#139=EDGE_LOOP('',(#48));
#140=EDGE_LOOP('',(#49));
#141=EDGE_LOOP('',(#50));
#142=EDGE_LOOP('',(#51));
#143=EDGE_LOOP('',(#52));
#144=EDGE_LOOP('',(#53));
#145=EDGE_LOOP('',(#54));
#146=EDGE_LOOP('',(#55));
#147=EDGE_LOOP('',(#56));
#148=EDGE_LOOP('',(#57));
#149=EDGE_LOOP('',(#58));
#150=EDGE_LOOP('',(#59));
#151=EDGE_LOOP('',(#60));
#152=EDGE_LOOP('',(#61));
#153=EDGE_LOOP('',(#62));
#154=EDGE_LOOP('',(#63));
#155=EDGE_LOOP('',(#64));
#156=EDGE_LOOP('',(#65));
#157=EDGE_LOOP('',(#66));
#158=EDGE_LOOP('',(#67));
#159=EDGE_LOOP('',(#68));
#160=EDGE_LOOP('',(#69));
#161=EDGE_LOOP('',(#70));
#162=EDGE_LOOP('',(#71));
#163=EDGE_LOOP('',(#72));
#164=EDGE_LOOP('',(#73));
#165=EDGE_LOOP('',(#74));
#166=EDGE_LOOP('',(#75));
#167=EDGE_LOOP('',(#76));
#168=EDGE_LOOP('',(#77));
#169=EDGE_LOOP('',(#78));
#170=EDGE_LOOP('',(#79));
#171=EDGE_LOOP('',(#80));
#172=EDGE_LOOP('',(#81));
#173=FACE_BOUND('',#137,.T.);
#174=FACE_BOUND('',#138,.T.);
#175=FACE_BOUND('',#139,.T.);
#176=FACE_BOUND('',#140,.T.);
#177=FACE_BOUND('',#141,.T.);
#178=FACE_BOUND('',#142,.T.);
#179=FACE_BOUND('',#143,.T.);
#180=FACE_BOUND('',#144,.T.);
#181=FACE_BOUND('',#145,.T.);
#182=FACE_BOUND('',#146,.T.);
#183=FACE_BOUND('',#147,.T.);
#184=FACE_BOUND('',#148,.T.);
#185=FACE_BOUND('',#149,.T.);
#186=FACE_BOUND('',#150,.T.);
#187=FACE_BOUND('',#151,.T.);
#188=FACE_BOUND('',#152,.T.);
#189=FACE_BOUND('',#153,.T.);
#190=FACE_BOUND('',#154,.T.);
#191=FACE_BOUND('',#155,.T.);
#192=FACE_BOUND('',#156,.T.);
#193=FACE_BOUND('',#157,.T.);
#194=FACE_BOUND('',#158,.T.);
#195=FACE_BOUND('',#159,.T.);
#196=FACE_BOUND('',#160,.T.);
#197=FACE_BOUND('',#161,.T.);
#198=FACE_BOUND('',#162,.T.);
#199=FACE_BOUND('',#163,.T.);
#200=FACE_BOUND('',#164,.T.);
#201=FACE_BOUND('',#165,.T.);
#202=FACE_BOUND('',#166,.T.);
#203=FACE_BOUND('',#167,.T.);
#204=FACE_BOUND('',#168,.T.);
#205=FACE_BOUND('',#169,.T.);
#206=FACE_BOUND('',#170,.T.);
#207=FACE_BOUND('',#171,.T.);
#208=FACE_BOUND('',#172,.T.);
#209=FACE_BOUND('',#18,.T.);
#210=PLANE('',#259);
#211=PLANE('',#265);
#212=PLANE('',#278);
#213=PLANE('',#283);
#214=ADVANCED_FACE('',(#173,#174),#210,.F.);
#215=ADVANCED_FACE('',(#175,#176),#40,.T.);
#216=ADVANCED_FACE('',(#177,#178),#211,.F.);
#217=ADVANCED_FACE('',(#179,#180),#41,.T.);
#218=ADVANCED_FACE('',(#181,#182),#32,.T.);
#219=ADVANCED_FACE('',(#183,#184),#42,.T.);
#220=ADVANCED_FACE('',(#185,#186),#33,.T.);
#221=ADVANCED_FACE('',(#187,#188),#43,.T.);
#222=ADVANCED_FACE('',(#189,#190),#212,.F.);
#223=ADVANCED_FACE('',(#191,#192),#44,.T.);
#224=ADVANCED_FACE('',(#193,#194),#213,.F.);
#225=ADVANCED_FACE('',(#195,#196),#45,.F.);
#226=ADVANCED_FACE('',(#197,#198),#34,.F.);
#227=ADVANCED_FACE('',(#199,#200),#35,.T.);
#228=ADVANCED_FACE('',(#201,#202),#36,.F.);
#229=ADVANCED_FACE('',(#203,#204),#37,.T.);
#230=ADVANCED_FACE('',(#205,#206),#38,.T.);
#231=ADVANCED_FACE('',(#207,#208),#39,.T.);
#232=ADVANCED_FACE('',(#209),#19,.T.);
#233=CLOSED_SHELL('',(#214,#215,#216,#217,#218,#219,#220,#221,#222,#223,
#224,#225,#226,#227,#228,#229,#230,#231));
#234=CLOSED_SHELL('',(#232));
#235=STYLED_ITEM('',(#237),#250);
#236=STYLED_ITEM('',(#238),#251);
#237=PRESENTATION_STYLE_ASSIGNMENT((#239));
#238=PRESENTATION_STYLE_ASSIGNMENT((#240));
#239=SURFACE_STYLE_USAGE(.BOTH.,#241);
#240=SURFACE_STYLE_USAGE(.BOTH.,#242);
#241=SURFACE_SIDE_STYLE('',(#243));
#242=SURFACE_SIDE_STYLE('',(#244));
#243=SURFACE_STYLE_FILL_AREA(#245);
#244=SURFACE_STYLE_FILL_AREA(#246);
#245=FILL_AREA_STYLE('',(#247));
#246=FILL_AREA_STYLE('',(#248));
#247=FILL_AREA_STYLE_COLOUR('',#249);
#248=FILL_AREA_STYLE_COLOUR('',#249);
#249=COLOUR_RGB('',0.506983280181885,0.531564235687256,0.550000011920929);
#250=MANIFOLD_SOLID_BREP('',#233);
#251=MANIFOLD_SOLID_BREP('',#234);
#252=SHAPE_DEFINITION_REPRESENTATION(#448,#255);
#253=SHAPE_DEFINITION_REPRESENTATION(#447,#256);
#254=SHAPE_DEFINITION_REPRESENTATION(#450,#257);
#255=SHAPE_REPRESENTATION('34.211.197-AL',(#258),#439);
#256=SHAPE_REPRESENTATION('34.016037.121.816-IZ',(#258,#295,#297),#438);
#257=SHAPE_REPRESENTATION('34.016067.100.801',(#258),#440);
#258=AXIS2_PLACEMENT_3D('',#378,#298,#299);
#259=AXIS2_PLACEMENT_3D('',#379,#300,#301);
#260=AXIS2_PLACEMENT_3D('',#380,#302,#303);
#261=AXIS2_PLACEMENT_3D('',#382,#304,#305);
#262=AXIS2_PLACEMENT_3D('',#384,#306,#307);
#263=AXIS2_PLACEMENT_3D('',#385,#308,#309);
#264=AXIS2_PLACEMENT_3D('',#387,#310,#311);
#265=AXIS2_PLACEMENT_3D('',#389,#312,#313);
#266=AXIS2_PLACEMENT_3D('',#390,#314,#315);
#267=AXIS2_PLACEMENT_3D('',#392,#316,#317);
#268=AXIS2_PLACEMENT_3D('',#393,#318,#319);
#269=AXIS2_PLACEMENT_3D('',#395,#320,#321);
#270=AXIS2_PLACEMENT_3D('',#397,#322,#323);
#271=AXIS2_PLACEMENT_3D('',#398,#324,#325);
#272=AXIS2_PLACEMENT_3D('',#400,#326,#327);
#273=AXIS2_PLACEMENT_3D('',#401,#328,#329);
#274=AXIS2_PLACEMENT_3D('',#403,#330,#331);
#275=AXIS2_PLACEMENT_3D('',#404,#332,#333);
#276=AXIS2_PLACEMENT_3D('',#406,#334,#335);
#277=AXIS2_PLACEMENT_3D('',#407,#336,#337);
#278=AXIS2_PLACEMENT_3D('',#409,#338,#339);
#279=AXIS2_PLACEMENT_3D('',#410,#340,#341);
#280=AXIS2_PLACEMENT_3D('',#412,#342,#343);
#281=AXIS2_PLACEMENT_3D('',#414,#344,#345);
#282=AXIS2_PLACEMENT_3D('',#415,#346,#347);
#283=AXIS2_PLACEMENT_3D('',#417,#348,#349);
#284=AXIS2_PLACEMENT_3D('',#418,#350,#351);
#285=AXIS2_PLACEMENT_3D('',#420,#352,#353);
#286=AXIS2_PLACEMENT_3D('',#422,#354,#355);
#287=AXIS2_PLACEMENT_3D('',#423,#356,#357);
#288=AXIS2_PLACEMENT_3D('',#425,#358,#359);
#289=AXIS2_PLACEMENT_3D('',#427,#360,#361);
#290=AXIS2_PLACEMENT_3D('',#428,#362,#363);
#291=AXIS2_PLACEMENT_3D('',#429,#364,#365);
#292=AXIS2_PLACEMENT_3D('',#430,#366,#367);
#293=AXIS2_PLACEMENT_3D('',#431,#368,#369);
#294=AXIS2_PLACEMENT_3D('',#432,#370,#371);
#295=AXIS2_PLACEMENT_3D('',#433,#372,#373);
#296=AXIS2_PLACEMENT_3D('',#434,#374,#375);
#297=AXIS2_PLACEMENT_3D('',#436,#376,#377);
#298=DIRECTION('',(0.,0.,1.));
#299=DIRECTION('',(1.,0.,0.));
#300=DIRECTION('',(-1.,0.,0.));
#301=DIRECTION('',(0.,0.,1.));
#302=DIRECTION('',(-1.,0.,0.));
#303=DIRECTION('',(0.,0.,1.));
#304=DIRECTION('',(-1.,0.,0.));
#305=DIRECTION('',(0.,0.,1.));
#306=DIRECTION('',(-1.,0.,0.));
#307=DIRECTION('',(0.,0.,1.));
#308=DIRECTION('',(-1.,0.,0.));
#309=DIRECTION('',(0.,0.,1.));
#310=DIRECTION('',(-1.,0.,0.));
#311=DIRECTION('',(0.,0.,1.));
#312=DIRECTION('',(-1.,0.,0.));
#313=DIRECTION('',(0.,0.,1.));
#314=DIRECTION('',(-1.,0.,0.));
#315=DIRECTION('',(0.,0.,1.));
#316=DIRECTION('',(-1.,0.,0.));
#317=DIRECTION('',(0.,0.,1.));
#318=DIRECTION('',(-1.,0.,0.));
#319=DIRECTION('',(0.,0.,1.));
#320=DIRECTION('',(-1.,0.,0.));
#321=DIRECTION('',(0.,0.,1.));
#322=DIRECTION('',(1.,0.,0.));
#323=DIRECTION('',(0.,0.,-1.));
#324=DIRECTION('',(-1.,0.,0.));
#325=DIRECTION('',(0.,0.,1.));
#326=DIRECTION('',(-1.,0.,0.));
#327=DIRECTION('',(0.,0.,1.));
#328=DIRECTION('',(-1.,0.,0.));
#329=DIRECTION('',(0.,0.,1.));
#330=DIRECTION('',(-1.,0.,0.));
#331=DIRECTION('',(0.,0.,1.));
#332=DIRECTION('',(-1.,0.,0.));
#333=DIRECTION('',(0.,0.,1.));
#334=DIRECTION('',(-1.,0.,0.));
#335=DIRECTION('',(0.,0.,1.));
#336=DIRECTION('',(1.,0.,0.));
#337=DIRECTION('',(0.,0.,-1.));
#338=DIRECTION('',(1.,0.,0.));
#339=DIRECTION('',(0.,0.,-1.));
#340=DIRECTION('',(1.,0.,0.));
#341=DIRECTION('',(0.,0.,-1.));
#342=DIRECTION('',(-1.,0.,0.));
#343=DIRECTION('',(0.,0.,1.));
#344=DIRECTION('',(-1.,0.,0.));
#345=DIRECTION('',(0.,0.,1.));
#346=DIRECTION('',(1.,0.,0.));
#347=DIRECTION('',(0.,0.,-1.));
#348=DIRECTION('',(1.,0.,0.));
#349=DIRECTION('',(0.,0.,-1.));
#350=DIRECTION('',(1.,0.,0.));
#351=DIRECTION('',(0.,0.,-1.));
#352=DIRECTION('',(1.,0.,0.));
#353=DIRECTION('',(0.,0.,-1.));
#354=DIRECTION('',(-1.,0.,0.));
#355=DIRECTION('',(0.,0.,1.));
#356=DIRECTION('',(1.,0.,0.));
#357=DIRECTION('',(0.,0.,-1.));
#358=DIRECTION('',(-1.,0.,0.));
#359=DIRECTION('',(0.,0.,1.));
#360=DIRECTION('',(-1.,0.,0.));
#361=DIRECTION('',(0.,0.,1.));
#362=DIRECTION('',(1.,0.,0.));
#363=DIRECTION('',(0.,0.,-1.));
#364=DIRECTION('',(1.,0.,0.));
#365=DIRECTION('',(0.,0.,-1.));
#366=DIRECTION('',(-1.,0.,0.));
#367=DIRECTION('',(0.,0.,1.));
#368=DIRECTION('',(1.,0.,0.));
#369=DIRECTION('',(0.,0.,-1.));
#370=DIRECTION('',(-1.,0.,0.));
#371=DIRECTION('',(0.,0.,1.));
#372=DIRECTION('',(0.,0.,1.));
#373=DIRECTION('',(1.,0.,0.));
#374=DIRECTION('',(-1.,0.,0.));
#375=DIRECTION('',(0.,0.,1.));
#376=DIRECTION('',(-1.38777878078145E-17,1.11022302462516E-16,1.));
#377=DIRECTION('',(1.,-5.55111512312578E-17,1.38777878078145E-17));
#378=CARTESIAN_POINT('',(0.,0.,0.));
#379=CARTESIAN_POINT('',(4.,0.,8.));
#380=CARTESIAN_POINT('',(4.,0.,0.));
#381=CARTESIAN_POINT('',(4.,0.,8.2));
#382=CARTESIAN_POINT('',(4.,0.,0.));
#383=CARTESIAN_POINT('',(4.,0.,8.35));
#384=CARTESIAN_POINT('',(0.,0.,0.));
#385=CARTESIAN_POINT('',(3.8,0.,0.));
#386=CARTESIAN_POINT('',(3.8,0.,8.55));
#387=CARTESIAN_POINT('',(2.,0.,0.));
#388=CARTESIAN_POINT('',(2.,0.,8.55));
#389=CARTESIAN_POINT('',(2.,0.,8.55));
#390=CARTESIAN_POINT('',(2.,0.,0.));
#391=CARTESIAN_POINT('',(2.,0.,10.4));
#392=CARTESIAN_POINT('',(0.,0.,0.));
#393=CARTESIAN_POINT('',(1.9,0.,0.));
#394=CARTESIAN_POINT('',(1.9,0.,10.5));
#395=CARTESIAN_POINT('',(1.54668783648703,0.,0.));
#396=CARTESIAN_POINT('',(1.54668783648703,0.,10.5));
#397=CARTESIAN_POINT('',(1.54668783648703,0.,0.));
#398=CARTESIAN_POINT('',(0.825,0.,0.));
#399=CARTESIAN_POINT('',(0.825,0.,9.25));
#400=CARTESIAN_POINT('',(0.,0.,0.));
#401=CARTESIAN_POINT('',(-0.825,0.,0.));
#402=CARTESIAN_POINT('',(-0.825,0.,9.25));
#403=CARTESIAN_POINT('',(-0.825,0.,0.));
#404=CARTESIAN_POINT('',(-1.54668783648703,0.,0.));
#405=CARTESIAN_POINT('',(-1.54668783648703,0.,10.5));
#406=CARTESIAN_POINT('',(0.,0.,0.));
#407=CARTESIAN_POINT('',(-1.9,0.,0.));
#408=CARTESIAN_POINT('',(-1.9,0.,-10.5));
#409=CARTESIAN_POINT('',(-2.,0.,10.5));
#410=CARTESIAN_POINT('',(-2.,0.,0.));
#411=CARTESIAN_POINT('',(-2.,0.,-10.4));
#412=CARTESIAN_POINT('',(-2.,0.,0.));
#413=CARTESIAN_POINT('',(-2.,0.,8.55));
#414=CARTESIAN_POINT('',(0.,0.,0.));
#415=CARTESIAN_POINT('',(-3.8,0.,0.));
#416=CARTESIAN_POINT('',(-3.8,0.,-8.55));
#417=CARTESIAN_POINT('',(-4.,0.,8.55));
#418=CARTESIAN_POINT('',(-4.,0.,0.));
#419=CARTESIAN_POINT('',(-4.,0.,-8.2));
#420=CARTESIAN_POINT('',(-4.,0.,0.));
#421=CARTESIAN_POINT('',(-4.,0.,-8.35));
#422=CARTESIAN_POINT('',(0.,0.,0.));
#423=CARTESIAN_POINT('',(-3.8,0.,0.));
#424=CARTESIAN_POINT('',(-3.8,0.,-8.));
#425=CARTESIAN_POINT('',(3.8,0.,0.));
#426=CARTESIAN_POINT('',(3.8,0.,8.));
#427=CARTESIAN_POINT('',(-3.8,0.,0.));
#428=CARTESIAN_POINT('',(-4.,0.,0.));
#429=CARTESIAN_POINT('',(4.,0.,0.));
#430=CARTESIAN_POINT('',(3.8,0.,0.));
#431=CARTESIAN_POINT('',(-2.,0.,0.));
#432=CARTESIAN_POINT('',(1.9,0.,0.));
#433=CARTESIAN_POINT('',(0.,0.,0.));
#434=CARTESIAN_POINT('',(0.,0.,0.));
#435=CARTESIAN_POINT('',(3.06161699786838E-16,0.,10.));
#436=CARTESIAN_POINT('',(-1.73472347597681E-15,-6.77408620396248E-16,1.69352155099062E-16));
#437=MECHANICAL_DESIGN_GEOMETRIC_PRESENTATION_REPRESENTATION('',(#235,#236),
#438);
#438=(
GEOMETRIC_REPRESENTATION_CONTEXT(3)
GLOBAL_UNCERTAINTY_ASSIGNED_CONTEXT((#441))
GLOBAL_UNIT_ASSIGNED_CONTEXT((#446,#445,#444))
REPRESENTATION_CONTEXT('34.016037.121.816-IZ','TOP_LEVEL_ASSEMBLY_PART')
);
#439=(
GEOMETRIC_REPRESENTATION_CONTEXT(3)
GLOBAL_UNCERTAINTY_ASSIGNED_CONTEXT((#442))
GLOBAL_UNIT_ASSIGNED_CONTEXT((#446,#445,#444))
REPRESENTATION_CONTEXT('34.211.197-AL','COMPONENT_PART')
);
#440=(
GEOMETRIC_REPRESENTATION_CONTEXT(3)
GLOBAL_UNCERTAINTY_ASSIGNED_CONTEXT((#443))
GLOBAL_UNIT_ASSIGNED_CONTEXT((#446,#445,#444))
REPRESENTATION_CONTEXT('34.016067.100.801','COMPONENT_PART')
);
#441=UNCERTAINTY_MEASURE_WITH_UNIT(LENGTH_MEASURE(0.005),#446,
'DISTANCE_ACCURACY_VALUE','Maximum Tolerance applied to model');
#442=UNCERTAINTY_MEASURE_WITH_UNIT(LENGTH_MEASURE(0.005),#446,
'DISTANCE_ACCURACY_VALUE','Maximum Tolerance applied to model');
#443=UNCERTAINTY_MEASURE_WITH_UNIT(LENGTH_MEASURE(0.005),#446,
'DISTANCE_ACCURACY_VALUE','Maximum Tolerance applied to model');
#444=(
NAMED_UNIT(*)
SI_UNIT($,.STERADIAN.)
SOLID_ANGLE_UNIT()
);
#445=(
NAMED_UNIT(*)
PLANE_ANGLE_UNIT()
SI_UNIT($,.RADIAN.)
);
#446=(
LENGTH_UNIT()
NAMED_UNIT(*)
SI_UNIT(.MILLI.,.METRE.)
);
#447=PRODUCT_DEFINITION_SHAPE('','',#452);
#448=PRODUCT_DEFINITION_SHAPE('','',#453);
#449=PRODUCT_DEFINITION_SHAPE(' ','NAUO PRDDFN',#22);
#450=PRODUCT_DEFINITION_SHAPE('','',#454);
#451=PRODUCT_DEFINITION_SHAPE(' ','NAUO PRDDFN',#23);
#452=PRODUCT_DEFINITION('','',#458,#455);
#453=PRODUCT_DEFINITION('','',#459,#456);
#454=PRODUCT_DEFINITION('','',#460,#457);
#455=PRODUCT_DEFINITION_CONTEXT('',#474,'design');
#456=PRODUCT_DEFINITION_CONTEXT('',#474,'design');
#457=PRODUCT_DEFINITION_CONTEXT('',#474,'design');
#458=PRODUCT_DEFINITION_FORMATION_WITH_SPECIFIED_SOURCE('','',#464,
 .NOT_KNOWN.);
#459=PRODUCT_DEFINITION_FORMATION_WITH_SPECIFIED_SOURCE('','',#465,
 .NOT_KNOWN.);
#460=PRODUCT_DEFINITION_FORMATION_WITH_SPECIFIED_SOURCE('','',#466,
 .NOT_KNOWN.);
#461=PRODUCT_RELATED_PRODUCT_CATEGORY('','',(#464));
#462=PRODUCT_RELATED_PRODUCT_CATEGORY('','',(#465));
#463=PRODUCT_RELATED_PRODUCT_CATEGORY('','',(#466));
#464=PRODUCT('34.016037.121.816-IZ','34.016037.121.816-IZ',
'34.016037.121.816-IZ',(#470));
#465=PRODUCT('34.211.197-AL','34.211.197-AL','34.211.197-AL',(#471));
#466=PRODUCT('34.016067.100.801','34.016067.100.801',
'34.016067.100.801',(#472));
#467=PRODUCT_CATEGORY('','');
#468=PRODUCT_CATEGORY('','');
#469=PRODUCT_CATEGORY('','');
#470=PRODUCT_CONTEXT('',#474,'mechanical');
#471=PRODUCT_CONTEXT('',#474,'mechanical');
#472=PRODUCT_CONTEXT('',#474,'mechanical');
#473=APPLICATION_PROTOCOL_DEFINITION('international standard',
'automotive_design',2010,#474);
#474=APPLICATION_CONTEXT(
'core data for automotive mechanical design processes');
ENDSEC;
END-ISO-10303-21;
