ISO-10303-21;
HEADER;
/* Generated by software containing ST-Developer
 * from STEP Tools, Inc. (www.steptools.com) 
 */
/* OPTION: strings as raw bytes, not using required /X/ escapes */

FILE_DESCRIPTION(
/* description */ (''),
/* implementation_level */ '2;1');

FILE_NAME(
/* name */ '34.025035.123.625',
/* time_stamp */ '2019-05-09T10:47:51+02:00',
/* author */ ('Murat Coskun Bicak'),
/* organization */ ('Evac AG'),
/* preprocessor_version */ 'ST-DEVELOPER v16.7',
/* originating_system */ 'DEX',
/* authorisation */ $);

FILE_SCHEMA (('AUTOMOTIVE_DESIGN {1 0 10303 214 3 1 1}'));
ENDSEC;

DATA;
#10=PROPERTY_DEFINITION_REPRESENTATION(#14,#12);
#11=PROPERTY_DEFINITION_REPRESENTATION(#15,#13);
#12=REPRESENTATION('',(#16),#499);
#13=REPRESENTATION('',(#17),#499);
#14=PROPERTY_DEFINITION('pmi validation property','',#510);
#15=PROPERTY_DEFINITION('pmi validation property','',#510);
#16=VALUE_REPRESENTATION_ITEM('number of annotations',COUNT_MEASURE(0.));
#17=VALUE_REPRESENTATION_ITEM('number of views',COUNT_MEASURE(0.));
#18=VERTEX_LOOP('',#132);
#19=CONTEXT_DEPENDENT_SHAPE_REPRESENTATION(#25,#512);
#20=CONTEXT_DEPENDENT_SHAPE_REPRESENTATION(#26,#514);
#21=CONTEXT_DEPENDENT_SHAPE_REPRESENTATION(#27,#516);
#22=NEXT_ASSEMBLY_USAGE_OCCURRENCE('34.123.021-PTFE','34.123.021-PTFE',
'34.123.021-PTFE',#517,#518,'');
#23=NEXT_ASSEMBLY_USAGE_OCCURRENCE('34.122.022-PTFE','34.122.022-PTFE',
'34.122.022-PTFE',#517,#519,'');
#24=NEXT_ASSEMBLY_USAGE_OCCURRENCE('34.804.802','34.804.802',
'34.804.802',#517,#520,'');
#25=(
REPRESENTATION_RELATIONSHIP(' ',' ',#293,#294)
REPRESENTATION_RELATIONSHIP_WITH_TRANSFORMATION(#28)
SHAPE_REPRESENTATION_RELATIONSHIP()
);
#26=(
REPRESENTATION_RELATIONSHIP(' ',' ',#295,#294)
REPRESENTATION_RELATIONSHIP_WITH_TRANSFORMATION(#29)
SHAPE_REPRESENTATION_RELATIONSHIP()
);
#27=(
REPRESENTATION_RELATIONSHIP(' ',' ',#296,#294)
REPRESENTATION_RELATIONSHIP_WITH_TRANSFORMATION(#30)
SHAPE_REPRESENTATION_RELATIONSHIP()
);
#28=ITEM_DEFINED_TRANSFORMATION(' ',' ',#297,#314);
#29=ITEM_DEFINED_TRANSFORMATION(' ',' ',#297,#339);
#30=ITEM_DEFINED_TRANSFORMATION(' ',' ',#297,#341);
#31=SHAPE_REPRESENTATION_RELATIONSHIP('','',#293,#34);
#32=SHAPE_REPRESENTATION_RELATIONSHIP('','',#295,#35);
#33=SHAPE_REPRESENTATION_RELATIONSHIP('','',#296,#36);
#34=ADVANCED_BREP_SHAPE_REPRESENTATION('',(#286),#500);
#35=ADVANCED_BREP_SHAPE_REPRESENTATION('',(#287),#501);
#36=ADVANCED_BREP_SHAPE_REPRESENTATION('',(#288),#502);
#37=TOROIDAL_SURFACE('',#309,14.93,0.8);
#38=TOROIDAL_SURFACE('',#332,18.0140119439281,0.5);
#39=TOROIDAL_SURFACE('',#340,16.8,2.);
#40=CONICAL_SURFACE('',#307,15.15,1.0471975511966);
#41=CONICAL_SURFACE('',#311,14.53,1.0471975511966);
#42=CONICAL_SURFACE('',#330,17.8,1.0471975511966);
#43=CONICAL_SURFACE('',#334,18.2640119439281,1.0471975511966);
#44=CYLINDRICAL_SURFACE('',#301,12.);
#45=CYLINDRICAL_SURFACE('',#305,15.15);
#46=CYLINDRICAL_SURFACE('',#313,15.15);
#47=CYLINDRICAL_SURFACE('',#315,20.);
#48=CYLINDRICAL_SURFACE('',#320,21.);
#49=CYLINDRICAL_SURFACE('',#324,20.);
#50=CYLINDRICAL_SURFACE('',#328,17.8);
#51=CYLINDRICAL_SURFACE('',#336,17.8);
#52=ORIENTED_EDGE('',*,*,#92,.F.);
#53=ORIENTED_EDGE('',*,*,#93,.T.);
#54=ORIENTED_EDGE('',*,*,#94,.F.);
#55=ORIENTED_EDGE('',*,*,#92,.T.);
#56=ORIENTED_EDGE('',*,*,#95,.F.);
#57=ORIENTED_EDGE('',*,*,#94,.T.);
#58=ORIENTED_EDGE('',*,*,#96,.F.);
#59=ORIENTED_EDGE('',*,*,#95,.T.);
#60=ORIENTED_EDGE('',*,*,#97,.F.);
#61=ORIENTED_EDGE('',*,*,#96,.T.);
#62=ORIENTED_EDGE('',*,*,#98,.F.);
#63=ORIENTED_EDGE('',*,*,#97,.T.);
#64=ORIENTED_EDGE('',*,*,#99,.F.);
#65=ORIENTED_EDGE('',*,*,#98,.T.);
#66=ORIENTED_EDGE('',*,*,#93,.F.);
#67=ORIENTED_EDGE('',*,*,#99,.T.);
#68=ORIENTED_EDGE('',*,*,#100,.T.);
#69=ORIENTED_EDGE('',*,*,#101,.F.);
#70=ORIENTED_EDGE('',*,*,#102,.T.);
#71=ORIENTED_EDGE('',*,*,#100,.F.);
#72=ORIENTED_EDGE('',*,*,#103,.T.);
#73=ORIENTED_EDGE('',*,*,#102,.F.);
#74=ORIENTED_EDGE('',*,*,#104,.T.);
#75=ORIENTED_EDGE('',*,*,#103,.F.);
#76=ORIENTED_EDGE('',*,*,#105,.T.);
#77=ORIENTED_EDGE('',*,*,#104,.F.);
#78=ORIENTED_EDGE('',*,*,#106,.T.);
#79=ORIENTED_EDGE('',*,*,#105,.F.);
#80=ORIENTED_EDGE('',*,*,#107,.T.);
#81=ORIENTED_EDGE('',*,*,#106,.F.);
#82=ORIENTED_EDGE('',*,*,#108,.T.);
#83=ORIENTED_EDGE('',*,*,#107,.F.);
#84=ORIENTED_EDGE('',*,*,#109,.T.);
#85=ORIENTED_EDGE('',*,*,#108,.F.);
#86=ORIENTED_EDGE('',*,*,#110,.T.);
#87=ORIENTED_EDGE('',*,*,#109,.F.);
#88=ORIENTED_EDGE('',*,*,#111,.T.);
#89=ORIENTED_EDGE('',*,*,#110,.F.);
#90=ORIENTED_EDGE('',*,*,#101,.T.);
#91=ORIENTED_EDGE('',*,*,#111,.F.);
#92=EDGE_CURVE('',#112,#112,#133,.T.);
#93=EDGE_CURVE('',#113,#113,#134,.T.);
#94=EDGE_CURVE('',#114,#114,#135,.T.);
#95=EDGE_CURVE('',#115,#115,#136,.T.);
#96=EDGE_CURVE('',#116,#116,#137,.T.);
#97=EDGE_CURVE('',#117,#117,#138,.T.);
#98=EDGE_CURVE('',#118,#118,#139,.T.);
#99=EDGE_CURVE('',#119,#119,#140,.T.);
#100=EDGE_CURVE('',#120,#120,#141,.T.);
#101=EDGE_CURVE('',#121,#121,#142,.T.);
#102=EDGE_CURVE('',#122,#122,#143,.T.);
#103=EDGE_CURVE('',#123,#123,#144,.T.);
#104=EDGE_CURVE('',#124,#124,#145,.T.);
#105=EDGE_CURVE('',#125,#125,#146,.T.);
#106=EDGE_CURVE('',#126,#126,#147,.T.);
#107=EDGE_CURVE('',#127,#127,#148,.T.);
#108=EDGE_CURVE('',#128,#128,#149,.T.);
#109=EDGE_CURVE('',#129,#129,#150,.T.);
#110=EDGE_CURVE('',#130,#130,#151,.T.);
#111=EDGE_CURVE('',#131,#131,#152,.T.);
#112=VERTEX_POINT('',#435);
#113=VERTEX_POINT('',#437);
#114=VERTEX_POINT('',#440);
#115=VERTEX_POINT('',#443);
#116=VERTEX_POINT('',#446);
#117=VERTEX_POINT('',#449);
#118=VERTEX_POINT('',#452);
#119=VERTEX_POINT('',#455);
#120=VERTEX_POINT('',#460);
#121=VERTEX_POINT('',#462);
#122=VERTEX_POINT('',#465);
#123=VERTEX_POINT('',#468);
#124=VERTEX_POINT('',#471);
#125=VERTEX_POINT('',#474);
#126=VERTEX_POINT('',#477);
#127=VERTEX_POINT('',#480);
#128=VERTEX_POINT('',#483);
#129=VERTEX_POINT('',#486);
#130=VERTEX_POINT('',#489);
#131=VERTEX_POINT('',#492);
#132=VERTEX_POINT('',#496);
#133=CIRCLE('',#299,12.);
#134=CIRCLE('',#300,15.15);
#135=CIRCLE('',#302,12.);
#136=CIRCLE('',#304,15.15);
#137=CIRCLE('',#306,15.15);
#138=CIRCLE('',#308,14.53);
#139=CIRCLE('',#310,14.53);
#140=CIRCLE('',#312,15.15);
#141=CIRCLE('',#316,20.);
#142=CIRCLE('',#317,20.);
#143=CIRCLE('',#319,21.);
#144=CIRCLE('',#321,21.);
#145=CIRCLE('',#323,20.);
#146=CIRCLE('',#325,20.);
#147=CIRCLE('',#327,17.8);
#148=CIRCLE('',#329,17.8);
#149=CIRCLE('',#331,18.2640119439281);
#150=CIRCLE('',#333,18.2640119439281);
#151=CIRCLE('',#335,17.8);
#152=CIRCLE('',#337,17.8);
#153=EDGE_LOOP('',(#52));
#154=EDGE_LOOP('',(#53));
#155=EDGE_LOOP('',(#54));
#156=EDGE_LOOP('',(#55));
#157=EDGE_LOOP('',(#56));
#158=EDGE_LOOP('',(#57));
#159=EDGE_LOOP('',(#58));
#160=EDGE_LOOP('',(#59));
#161=EDGE_LOOP('',(#60));
#162=EDGE_LOOP('',(#61));
#163=EDGE_LOOP('',(#62));
#164=EDGE_LOOP('',(#63));
#165=EDGE_LOOP('',(#64));
#166=EDGE_LOOP('',(#65));
#167=EDGE_LOOP('',(#66));
#168=EDGE_LOOP('',(#67));
#169=EDGE_LOOP('',(#68));
#170=EDGE_LOOP('',(#69));
#171=EDGE_LOOP('',(#70));
#172=EDGE_LOOP('',(#71));
#173=EDGE_LOOP('',(#72));
#174=EDGE_LOOP('',(#73));
#175=EDGE_LOOP('',(#74));
#176=EDGE_LOOP('',(#75));
#177=EDGE_LOOP('',(#76));
#178=EDGE_LOOP('',(#77));
#179=EDGE_LOOP('',(#78));
#180=EDGE_LOOP('',(#79));
#181=EDGE_LOOP('',(#80));
#182=EDGE_LOOP('',(#81));
#183=EDGE_LOOP('',(#82));
#184=EDGE_LOOP('',(#83));
#185=EDGE_LOOP('',(#84));
#186=EDGE_LOOP('',(#85));
#187=EDGE_LOOP('',(#86));
#188=EDGE_LOOP('',(#87));
#189=EDGE_LOOP('',(#88));
#190=EDGE_LOOP('',(#89));
#191=EDGE_LOOP('',(#90));
#192=EDGE_LOOP('',(#91));
#193=FACE_BOUND('',#153,.T.);
#194=FACE_BOUND('',#154,.T.);
#195=FACE_BOUND('',#155,.T.);
#196=FACE_BOUND('',#156,.T.);
#197=FACE_BOUND('',#157,.T.);
#198=FACE_BOUND('',#158,.T.);
#199=FACE_BOUND('',#159,.T.);
#200=FACE_BOUND('',#160,.T.);
#201=FACE_BOUND('',#161,.T.);
#202=FACE_BOUND('',#162,.T.);
#203=FACE_BOUND('',#163,.T.);
#204=FACE_BOUND('',#164,.T.);
#205=FACE_BOUND('',#165,.T.);
#206=FACE_BOUND('',#166,.T.);
#207=FACE_BOUND('',#167,.T.);
#208=FACE_BOUND('',#168,.T.);
#209=FACE_BOUND('',#169,.T.);
#210=FACE_BOUND('',#170,.T.);
#211=FACE_BOUND('',#171,.T.);
#212=FACE_BOUND('',#172,.T.);
#213=FACE_BOUND('',#173,.T.);
#214=FACE_BOUND('',#174,.T.);
#215=FACE_BOUND('',#175,.T.);
#216=FACE_BOUND('',#176,.T.);
#217=FACE_BOUND('',#177,.T.);
#218=FACE_BOUND('',#178,.T.);
#219=FACE_BOUND('',#179,.T.);
#220=FACE_BOUND('',#180,.T.);
#221=FACE_BOUND('',#181,.T.);
#222=FACE_BOUND('',#182,.T.);
#223=FACE_BOUND('',#183,.T.);
#224=FACE_BOUND('',#184,.T.);
#225=FACE_BOUND('',#185,.T.);
#226=FACE_BOUND('',#186,.T.);
#227=FACE_BOUND('',#187,.T.);
#228=FACE_BOUND('',#188,.T.);
#229=FACE_BOUND('',#189,.T.);
#230=FACE_BOUND('',#190,.T.);
#231=FACE_BOUND('',#191,.T.);
#232=FACE_BOUND('',#192,.T.);
#233=FACE_BOUND('',#18,.T.);
#234=PLANE('',#298);
#235=PLANE('',#303);
#236=PLANE('',#318);
#237=PLANE('',#322);
#238=PLANE('',#326);
#239=PLANE('',#338);
#240=ADVANCED_FACE('',(#193,#194),#234,.F.);
#241=ADVANCED_FACE('',(#195,#196),#44,.F.);
#242=ADVANCED_FACE('',(#197,#198),#235,.F.);
#243=ADVANCED_FACE('',(#199,#200),#45,.T.);
#244=ADVANCED_FACE('',(#201,#202),#40,.T.);
#245=ADVANCED_FACE('',(#203,#204),#37,.F.);
#246=ADVANCED_FACE('',(#205,#206),#41,.T.);
#247=ADVANCED_FACE('',(#207,#208),#46,.T.);
#248=ADVANCED_FACE('',(#209,#210),#47,.F.);
#249=ADVANCED_FACE('',(#211,#212),#236,.T.);
#250=ADVANCED_FACE('',(#213,#214),#48,.T.);
#251=ADVANCED_FACE('',(#215,#216),#237,.T.);
#252=ADVANCED_FACE('',(#217,#218),#49,.F.);
#253=ADVANCED_FACE('',(#219,#220),#238,.T.);
#254=ADVANCED_FACE('',(#221,#222),#50,.F.);
#255=ADVANCED_FACE('',(#223,#224),#42,.F.);
#256=ADVANCED_FACE('',(#225,#226),#38,.F.);
#257=ADVANCED_FACE('',(#227,#228),#43,.F.);
#258=ADVANCED_FACE('',(#229,#230),#51,.F.);
#259=ADVANCED_FACE('',(#231,#232),#239,.T.);
#260=ADVANCED_FACE('',(#233),#39,.T.);
#261=CLOSED_SHELL('',(#240,#241,#242,#243,#244,#245,#246,#247));
#262=CLOSED_SHELL('',(#248,#249,#250,#251,#252,#253,#254,#255,#256,#257,
#258,#259));
#263=CLOSED_SHELL('',(#260));
#264=STYLED_ITEM('',(#267),#286);
#265=STYLED_ITEM('',(#268),#287);
#266=STYLED_ITEM('',(#269),#288);
#267=PRESENTATION_STYLE_ASSIGNMENT((#270));
#268=PRESENTATION_STYLE_ASSIGNMENT((#271));
#269=PRESENTATION_STYLE_ASSIGNMENT((#272));
#270=SURFACE_STYLE_USAGE(.BOTH.,#273);
#271=SURFACE_STYLE_USAGE(.BOTH.,#274);
#272=SURFACE_STYLE_USAGE(.BOTH.,#275);
#273=SURFACE_SIDE_STYLE('',(#276));
#274=SURFACE_SIDE_STYLE('',(#277));
#275=SURFACE_SIDE_STYLE('',(#278));
#276=SURFACE_STYLE_FILL_AREA(#279);
#277=SURFACE_STYLE_FILL_AREA(#280);
#278=SURFACE_STYLE_FILL_AREA(#281);
#279=FILL_AREA_STYLE('',(#282));
#280=FILL_AREA_STYLE('',(#283));
#281=FILL_AREA_STYLE('',(#284));
#282=FILL_AREA_STYLE_COLOUR('',#285);
#283=FILL_AREA_STYLE_COLOUR('',#285);
#284=FILL_AREA_STYLE_COLOUR('',#285);
#285=COLOUR_RGB('',0.506983280181885,0.531564235687256,0.550000011920929);
#286=MANIFOLD_SOLID_BREP('',#261);
#287=MANIFOLD_SOLID_BREP('',#262);
#288=MANIFOLD_SOLID_BREP('',#263);
#289=SHAPE_DEFINITION_REPRESENTATION(#511,#293);
#290=SHAPE_DEFINITION_REPRESENTATION(#510,#294);
#291=SHAPE_DEFINITION_REPRESENTATION(#513,#295);
#292=SHAPE_DEFINITION_REPRESENTATION(#515,#296);
#293=SHAPE_REPRESENTATION('34.123.021-PTFE',(#297),#500);
#294=SHAPE_REPRESENTATION('34.025035.123.625',(#297,#314,#339,#341),#499);
#295=SHAPE_REPRESENTATION('34.122.022-PTFE',(#297),#501);
#296=SHAPE_REPRESENTATION('34.804.802',(#297),#502);
#297=AXIS2_PLACEMENT_3D('',#432,#342,#343);
#298=AXIS2_PLACEMENT_3D('',#433,#344,#345);
#299=AXIS2_PLACEMENT_3D('',#434,#346,#347);
#300=AXIS2_PLACEMENT_3D('',#436,#348,#349);
#301=AXIS2_PLACEMENT_3D('',#438,#350,#351);
#302=AXIS2_PLACEMENT_3D('',#439,#352,#353);
#303=AXIS2_PLACEMENT_3D('',#441,#354,#355);
#304=AXIS2_PLACEMENT_3D('',#442,#356,#357);
#305=AXIS2_PLACEMENT_3D('',#444,#358,#359);
#306=AXIS2_PLACEMENT_3D('',#445,#360,#361);
#307=AXIS2_PLACEMENT_3D('',#447,#362,#363);
#308=AXIS2_PLACEMENT_3D('',#448,#364,#365);
#309=AXIS2_PLACEMENT_3D('',#450,#366,#367);
#310=AXIS2_PLACEMENT_3D('',#451,#368,#369);
#311=AXIS2_PLACEMENT_3D('',#453,#370,#371);
#312=AXIS2_PLACEMENT_3D('',#454,#372,#373);
#313=AXIS2_PLACEMENT_3D('',#456,#374,#375);
#314=AXIS2_PLACEMENT_3D('',#457,#376,#377);
#315=AXIS2_PLACEMENT_3D('',#458,#378,#379);
#316=AXIS2_PLACEMENT_3D('',#459,#380,#381);
#317=AXIS2_PLACEMENT_3D('',#461,#382,#383);
#318=AXIS2_PLACEMENT_3D('',#463,#384,#385);
#319=AXIS2_PLACEMENT_3D('',#464,#386,#387);
#320=AXIS2_PLACEMENT_3D('',#466,#388,#389);
#321=AXIS2_PLACEMENT_3D('',#467,#390,#391);
#322=AXIS2_PLACEMENT_3D('',#469,#392,#393);
#323=AXIS2_PLACEMENT_3D('',#470,#394,#395);
#324=AXIS2_PLACEMENT_3D('',#472,#396,#397);
#325=AXIS2_PLACEMENT_3D('',#473,#398,#399);
#326=AXIS2_PLACEMENT_3D('',#475,#400,#401);
#327=AXIS2_PLACEMENT_3D('',#476,#402,#403);
#328=AXIS2_PLACEMENT_3D('',#478,#404,#405);
#329=AXIS2_PLACEMENT_3D('',#479,#406,#407);
#330=AXIS2_PLACEMENT_3D('',#481,#408,#409);
#331=AXIS2_PLACEMENT_3D('',#482,#410,#411);
#332=AXIS2_PLACEMENT_3D('',#484,#412,#413);
#333=AXIS2_PLACEMENT_3D('',#485,#414,#415);
#334=AXIS2_PLACEMENT_3D('',#487,#416,#417);
#335=AXIS2_PLACEMENT_3D('',#488,#418,#419);
#336=AXIS2_PLACEMENT_3D('',#490,#420,#421);
#337=AXIS2_PLACEMENT_3D('',#491,#422,#423);
#338=AXIS2_PLACEMENT_3D('',#493,#424,#425);
#339=AXIS2_PLACEMENT_3D('',#494,#426,#427);
#340=AXIS2_PLACEMENT_3D('',#495,#428,#429);
#341=AXIS2_PLACEMENT_3D('',#497,#430,#431);
#342=DIRECTION('',(0.,0.,1.));
#343=DIRECTION('',(1.,0.,0.));
#344=DIRECTION('',(1.,0.,0.));
#345=DIRECTION('',(0.,0.,-1.));
#346=DIRECTION('',(-1.,0.,0.));
#347=DIRECTION('',(0.,0.,1.));
#348=DIRECTION('',(-1.,0.,0.));
#349=DIRECTION('',(0.,0.,1.));
#350=DIRECTION('',(-1.,0.,0.));
#351=DIRECTION('',(0.,0.,1.));
#352=DIRECTION('',(-1.,0.,0.));
#353=DIRECTION('',(0.,0.,1.));
#354=DIRECTION('',(-1.,0.,0.));
#355=DIRECTION('',(0.,0.,1.));
#356=DIRECTION('',(-1.,0.,0.));
#357=DIRECTION('',(0.,0.,1.));
#358=DIRECTION('',(-1.,0.,0.));
#359=DIRECTION('',(0.,0.,1.));
#360=DIRECTION('',(-1.,0.,0.));
#361=DIRECTION('',(0.,0.,1.));
#362=DIRECTION('',(1.,0.,0.));
#363=DIRECTION('',(0.,0.,-1.));
#364=DIRECTION('',(-1.,0.,0.));
#365=DIRECTION('',(0.,0.,1.));
#366=DIRECTION('',(-1.,0.,0.));
#367=DIRECTION('',(0.,0.,1.));
#368=DIRECTION('',(-1.,0.,0.));
#369=DIRECTION('',(0.,0.,1.));
#370=DIRECTION('',(-1.,0.,0.));
#371=DIRECTION('',(0.,0.,1.));
#372=DIRECTION('',(-1.,0.,0.));
#373=DIRECTION('',(0.,0.,1.));
#374=DIRECTION('',(-1.,0.,0.));
#375=DIRECTION('',(0.,0.,1.));
#376=DIRECTION('',(0.,0.,1.));
#377=DIRECTION('',(1.,0.,0.));
#378=DIRECTION('',(-1.,0.,0.));
#379=DIRECTION('',(0.,0.,1.));
#380=DIRECTION('',(-1.,0.,0.));
#381=DIRECTION('',(0.,0.,1.));
#382=DIRECTION('',(-1.,0.,0.));
#383=DIRECTION('',(0.,0.,1.));
#384=DIRECTION('',(-1.,0.,0.));
#385=DIRECTION('',(0.,0.,1.));
#386=DIRECTION('',(-1.,0.,0.));
#387=DIRECTION('',(0.,0.,1.));
#388=DIRECTION('',(-1.,0.,0.));
#389=DIRECTION('',(0.,0.,1.));
#390=DIRECTION('',(-1.,0.,0.));
#391=DIRECTION('',(0.,0.,1.));
#392=DIRECTION('',(1.,0.,0.));
#393=DIRECTION('',(0.,0.,-1.));
#394=DIRECTION('',(-1.,0.,0.));
#395=DIRECTION('',(0.,0.,1.));
#396=DIRECTION('',(-1.,0.,0.));
#397=DIRECTION('',(0.,0.,1.));
#398=DIRECTION('',(-1.,0.,0.));
#399=DIRECTION('',(0.,0.,1.));
#400=DIRECTION('',(1.,0.,0.));
#401=DIRECTION('',(0.,0.,-1.));
#402=DIRECTION('',(-1.,0.,0.));
#403=DIRECTION('',(0.,0.,1.));
#404=DIRECTION('',(-1.,0.,0.));
#405=DIRECTION('',(0.,0.,1.));
#406=DIRECTION('',(-1.,0.,0.));
#407=DIRECTION('',(0.,0.,1.));
#408=DIRECTION('',(-1.,0.,0.));
#409=DIRECTION('',(0.,0.,1.));
#410=DIRECTION('',(-1.,0.,0.));
#411=DIRECTION('',(0.,0.,1.));
#412=DIRECTION('',(-1.,0.,0.));
#413=DIRECTION('',(0.,0.,1.));
#414=DIRECTION('',(-1.,0.,0.));
#415=DIRECTION('',(0.,0.,1.));
#416=DIRECTION('',(1.,0.,0.));
#417=DIRECTION('',(0.,0.,-1.));
#418=DIRECTION('',(-1.,0.,0.));
#419=DIRECTION('',(0.,0.,1.));
#420=DIRECTION('',(-1.,0.,0.));
#421=DIRECTION('',(0.,0.,1.));
#422=DIRECTION('',(-1.,0.,0.));
#423=DIRECTION('',(0.,0.,1.));
#424=DIRECTION('',(-1.,0.,0.));
#425=DIRECTION('',(0.,0.,1.));
#426=DIRECTION('',(2.77555756156289E-17,5.55111512312578E-17,1.));
#427=DIRECTION('',(1.,0.,-2.77555756156289E-17));
#428=DIRECTION('',(-1.,0.,0.));
#429=DIRECTION('',(0.,0.,1.));
#430=DIRECTION('',(4.16333634234434E-17,-5.55111512312578E-17,1.));
#431=DIRECTION('',(1.,-5.55111512312578E-17,-4.16333634234434E-17));
#432=CARTESIAN_POINT('',(0.,0.,0.));
#433=CARTESIAN_POINT('',(-1.5,0.,15.15));
#434=CARTESIAN_POINT('',(-1.5,0.,0.));
#435=CARTESIAN_POINT('',(-1.5,0.,12.));
#436=CARTESIAN_POINT('',(-1.5,0.,0.));
#437=CARTESIAN_POINT('',(-1.5,0.,15.15));
#438=CARTESIAN_POINT('',(0.,0.,0.));
#439=CARTESIAN_POINT('',(1.5,0.,0.));
#440=CARTESIAN_POINT('',(1.5,0.,12.));
#441=CARTESIAN_POINT('',(1.5,0.,12.));
#442=CARTESIAN_POINT('',(1.5,0.,0.));
#443=CARTESIAN_POINT('',(1.5,0.,15.15));
#444=CARTESIAN_POINT('',(0.,0.,0.));
#445=CARTESIAN_POINT('',(1.05077748992512,0.,0.));
#446=CARTESIAN_POINT('',(1.05077748992512,0.,15.15));
#447=CARTESIAN_POINT('',(1.05077748992512,0.,0.));
#448=CARTESIAN_POINT('',(0.692820323027551,0.,0.));
#449=CARTESIAN_POINT('',(0.692820323027551,0.,14.53));
#450=CARTESIAN_POINT('',(0.,0.,0.));
#451=CARTESIAN_POINT('',(-0.692820323027551,0.,0.));
#452=CARTESIAN_POINT('',(-0.692820323027551,0.,14.53));
#453=CARTESIAN_POINT('',(-0.692820323027551,0.,0.));
#454=CARTESIAN_POINT('',(-1.05077748992512,0.,0.));
#455=CARTESIAN_POINT('',(-1.05077748992512,0.,15.15));
#456=CARTESIAN_POINT('',(0.,0.,0.));
#457=CARTESIAN_POINT('',(0.,0.,0.));
#458=CARTESIAN_POINT('',(0.,0.,0.));
#459=CARTESIAN_POINT('',(-3.,0.,0.));
#460=CARTESIAN_POINT('',(-3.,0.,20.));
#461=CARTESIAN_POINT('',(-1.,0.,0.));
#462=CARTESIAN_POINT('',(-1.,0.,20.));
#463=CARTESIAN_POINT('',(-3.,0.,20.));
#464=CARTESIAN_POINT('',(-3.,0.,0.));
#465=CARTESIAN_POINT('',(-3.,0.,21.));
#466=CARTESIAN_POINT('',(0.,0.,0.));
#467=CARTESIAN_POINT('',(3.,0.,0.));
#468=CARTESIAN_POINT('',(3.,0.,21.));
#469=CARTESIAN_POINT('',(3.,0.,21.));
#470=CARTESIAN_POINT('',(3.,0.,0.));
#471=CARTESIAN_POINT('',(3.,0.,20.));
#472=CARTESIAN_POINT('',(0.,0.,0.));
#473=CARTESIAN_POINT('',(1.,0.,0.));
#474=CARTESIAN_POINT('',(1.,0.,20.));
#475=CARTESIAN_POINT('',(1.,0.,20.));
#476=CARTESIAN_POINT('',(1.,0.,0.));
#477=CARTESIAN_POINT('',(1.,0.,17.8));
#478=CARTESIAN_POINT('',(0.,0.,0.));
#479=CARTESIAN_POINT('',(0.700910122626277,0.,0.));
#480=CARTESIAN_POINT('',(0.700910122626277,0.,17.8));
#481=CARTESIAN_POINT('',(0.700910122626277,0.,0.));
#482=CARTESIAN_POINT('',(0.433012701892219,0.,0.));
#483=CARTESIAN_POINT('',(0.433012701892219,0.,18.2640119439281));
#484=CARTESIAN_POINT('',(0.,0.,0.));
#485=CARTESIAN_POINT('',(-0.433012701892219,0.,0.));
#486=CARTESIAN_POINT('',(-0.433012701892219,0.,18.2640119439281));
#487=CARTESIAN_POINT('',(-0.433012701892219,0.,0.));
#488=CARTESIAN_POINT('',(-0.700910122626277,0.,0.));
#489=CARTESIAN_POINT('',(-0.700910122626277,0.,17.8));
#490=CARTESIAN_POINT('',(0.,0.,0.));
#491=CARTESIAN_POINT('',(-1.,0.,0.));
#492=CARTESIAN_POINT('',(-1.,0.,17.8));
#493=CARTESIAN_POINT('',(-1.,0.,17.8));
#494=CARTESIAN_POINT('',(0.,7.66382950461076E-16,2.36004658600275E-16));
#495=CARTESIAN_POINT('',(0.,0.,0.));
#496=CARTESIAN_POINT('',(2.44929359829471E-16,0.,14.8));
#497=CARTESIAN_POINT('',(0.,8.89981331912553E-16,6.67485998934414E-16));
#498=MECHANICAL_DESIGN_GEOMETRIC_PRESENTATION_REPRESENTATION('',(#264,#265,
#266),#499);
#499=(
GEOMETRIC_REPRESENTATION_CONTEXT(3)
GLOBAL_UNCERTAINTY_ASSIGNED_CONTEXT((#503))
GLOBAL_UNIT_ASSIGNED_CONTEXT((#509,#508,#507))
REPRESENTATION_CONTEXT('34.025035.123.625','TOP_LEVEL_ASSEMBLY_PART')
);
#500=(
GEOMETRIC_REPRESENTATION_CONTEXT(3)
GLOBAL_UNCERTAINTY_ASSIGNED_CONTEXT((#504))
GLOBAL_UNIT_ASSIGNED_CONTEXT((#509,#508,#507))
REPRESENTATION_CONTEXT('34.123.021-PTFE','COMPONENT_PART')
);
#501=(
GEOMETRIC_REPRESENTATION_CONTEXT(3)
GLOBAL_UNCERTAINTY_ASSIGNED_CONTEXT((#505))
GLOBAL_UNIT_ASSIGNED_CONTEXT((#509,#508,#507))
REPRESENTATION_CONTEXT('34.122.022-PTFE','COMPONENT_PART')
);
#502=(
GEOMETRIC_REPRESENTATION_CONTEXT(3)
GLOBAL_UNCERTAINTY_ASSIGNED_CONTEXT((#506))
GLOBAL_UNIT_ASSIGNED_CONTEXT((#509,#508,#507))
REPRESENTATION_CONTEXT('34.804.802','COMPONENT_PART')
);
#503=UNCERTAINTY_MEASURE_WITH_UNIT(LENGTH_MEASURE(0.005),#509,
'DISTANCE_ACCURACY_VALUE','Maximum Tolerance applied to model');
#504=UNCERTAINTY_MEASURE_WITH_UNIT(LENGTH_MEASURE(0.005),#509,
'DISTANCE_ACCURACY_VALUE','Maximum Tolerance applied to model');
#505=UNCERTAINTY_MEASURE_WITH_UNIT(LENGTH_MEASURE(0.005),#509,
'DISTANCE_ACCURACY_VALUE','Maximum Tolerance applied to model');
#506=UNCERTAINTY_MEASURE_WITH_UNIT(LENGTH_MEASURE(0.005),#509,
'DISTANCE_ACCURACY_VALUE','Maximum Tolerance applied to model');
#507=(
NAMED_UNIT(*)
SI_UNIT($,.STERADIAN.)
SOLID_ANGLE_UNIT()
);
#508=(
NAMED_UNIT(*)
PLANE_ANGLE_UNIT()
SI_UNIT($,.RADIAN.)
);
#509=(
LENGTH_UNIT()
NAMED_UNIT(*)
SI_UNIT(.MILLI.,.METRE.)
);
#510=PRODUCT_DEFINITION_SHAPE('','',#517);
#511=PRODUCT_DEFINITION_SHAPE('','',#518);
#512=PRODUCT_DEFINITION_SHAPE(' ','NAUO PRDDFN',#22);
#513=PRODUCT_DEFINITION_SHAPE('','',#519);
#514=PRODUCT_DEFINITION_SHAPE(' ','NAUO PRDDFN',#23);
#515=PRODUCT_DEFINITION_SHAPE('','',#520);
#516=PRODUCT_DEFINITION_SHAPE(' ','NAUO PRDDFN',#24);
#517=PRODUCT_DEFINITION('','',#525,#521);
#518=PRODUCT_DEFINITION('','',#526,#522);
#519=PRODUCT_DEFINITION('','',#527,#523);
#520=PRODUCT_DEFINITION('','',#528,#524);
#521=PRODUCT_DEFINITION_CONTEXT('',#546,'design');
#522=PRODUCT_DEFINITION_CONTEXT('',#546,'design');
#523=PRODUCT_DEFINITION_CONTEXT('',#546,'design');
#524=PRODUCT_DEFINITION_CONTEXT('',#546,'design');
#525=PRODUCT_DEFINITION_FORMATION_WITH_SPECIFIED_SOURCE('','',#533,
 .NOT_KNOWN.);
#526=PRODUCT_DEFINITION_FORMATION_WITH_SPECIFIED_SOURCE('','',#534,
 .NOT_KNOWN.);
#527=PRODUCT_DEFINITION_FORMATION_WITH_SPECIFIED_SOURCE('','',#535,
 .NOT_KNOWN.);
#528=PRODUCT_DEFINITION_FORMATION_WITH_SPECIFIED_SOURCE('','',#536,
 .NOT_KNOWN.);
#529=PRODUCT_RELATED_PRODUCT_CATEGORY('','',(#533));
#530=PRODUCT_RELATED_PRODUCT_CATEGORY('','',(#534));
#531=PRODUCT_RELATED_PRODUCT_CATEGORY('','',(#535));
#532=PRODUCT_RELATED_PRODUCT_CATEGORY('','',(#536));
#533=PRODUCT('34.025035.123.625','34.025035.123.625',
'34.025035.123.625',(#541));
#534=PRODUCT('34.123.021-PTFE','34.123.021-PTFE','34.123.021-PTFE',(#542));
#535=PRODUCT('34.122.022-PTFE','34.122.022-PTFE','34.122.022-PTFE',(#543));
#536=PRODUCT('34.804.802','34.804.802','34.804.802',(#544));
#537=PRODUCT_CATEGORY('','');
#538=PRODUCT_CATEGORY('','');
#539=PRODUCT_CATEGORY('','');
#540=PRODUCT_CATEGORY('','');
#541=PRODUCT_CONTEXT('',#546,'mechanical');
#542=PRODUCT_CONTEXT('',#546,'mechanical');
#543=PRODUCT_CONTEXT('',#546,'mechanical');
#544=PRODUCT_CONTEXT('',#546,'mechanical');
#545=APPLICATION_PROTOCOL_DEFINITION('international standard',
'automotive_design',2010,#546);
#546=APPLICATION_CONTEXT(
'core data for automotive mechanical design processes');
ENDSEC;
END-ISO-10303-21;
