ISO-10303-21;
HEADER;
/* Generated by software containing ST-Developer
 * from STEP Tools, Inc. (www.steptools.com) 
 */
/* OPTION: strings as raw bytes, not using required /X/ escapes */

FILE_DESCRIPTION(
/* description */ (''),
/* implementation_level */ '2;1');

FILE_NAME(
/* name */ '34.050001.142.150az1',
/* time_stamp */ '2019-04-16T13:55:11+02:00',
/* author */ ('Murat Coskun Bicak'),
/* organization */ ('Evac AG'),
/* preprocessor_version */ 'ST-DEVELOPER v16.7',
/* originating_system */ 'DEX',
/* authorisation */ $);

FILE_SCHEMA (('AUTOMOTIVE_DESIGN {1 0 10303 214 3 1 1}'));
ENDSEC;

DATA;
#10=PROPERTY_DEFINITION_REPRESENTATION(#14,#12);
#11=PROPERTY_DEFINITION_REPRESENTATION(#15,#13);
#12=REPRESENTATION('',(#16),#417);
#13=REPRESENTATION('',(#17),#417);
#14=PROPERTY_DEFINITION('pmi validation property','',#422);
#15=PROPERTY_DEFINITION('pmi validation property','',#422);
#16=VALUE_REPRESENTATION_ITEM('number of annotations',COUNT_MEASURE(0.));
#17=VALUE_REPRESENTATION_ITEM('number of views',COUNT_MEASURE(0.));
#18=SHAPE_REPRESENTATION_RELATIONSHIP('','',#240,#19);
#19=ADVANCED_BREP_SHAPE_REPRESENTATION('',(#238),#417);
#20=TOROIDAL_SURFACE('',#260,36.5,0.15);
#21=TOROIDAL_SURFACE('',#273,36.5,0.15);
#22=TOROIDAL_SURFACE('',#277,34.8656854249492,0.4);
#23=TOROIDAL_SURFACE('',#278,34.8656854249492,0.4);
#24=TOROIDAL_SURFACE('',#279,37.1,0.4);
#25=CYLINDRICAL_SURFACE('',#249,32.5);
#26=CYLINDRICAL_SURFACE('',#264,38.5);
#27=CYLINDRICAL_SURFACE('',#268,37.5);
#28=PLANE('',#245);
#29=PLANE('',#253);
#30=PLANE('',#257);
#31=PLANE('',#262);
#32=PLANE('',#266);
#33=PLANE('',#270);
#34=PLANE('',#275);
#35=ORIENTED_EDGE('',*,*,#73,.T.);
#36=ORIENTED_EDGE('',*,*,#74,.F.);
#37=ORIENTED_EDGE('',*,*,#75,.F.);
#38=ORIENTED_EDGE('',*,*,#74,.T.);
#39=ORIENTED_EDGE('',*,*,#76,.F.);
#40=ORIENTED_EDGE('',*,*,#75,.T.);
#41=ORIENTED_EDGE('',*,*,#77,.F.);
#42=ORIENTED_EDGE('',*,*,#76,.T.);
#43=ORIENTED_EDGE('',*,*,#78,.F.);
#44=ORIENTED_EDGE('',*,*,#77,.T.);
#45=ORIENTED_EDGE('',*,*,#79,.F.);
#46=ORIENTED_EDGE('',*,*,#78,.T.);
#47=ORIENTED_EDGE('',*,*,#80,.T.);
#48=ORIENTED_EDGE('',*,*,#79,.T.);
#49=ORIENTED_EDGE('',*,*,#81,.T.);
#50=ORIENTED_EDGE('',*,*,#82,.F.);
#51=ORIENTED_EDGE('',*,*,#83,.F.);
#52=ORIENTED_EDGE('',*,*,#82,.T.);
#53=ORIENTED_EDGE('',*,*,#84,.F.);
#54=ORIENTED_EDGE('',*,*,#83,.T.);
#55=ORIENTED_EDGE('',*,*,#85,.F.);
#56=ORIENTED_EDGE('',*,*,#84,.T.);
#57=ORIENTED_EDGE('',*,*,#86,.F.);
#58=ORIENTED_EDGE('',*,*,#85,.T.);
#59=ORIENTED_EDGE('',*,*,#87,.T.);
#60=ORIENTED_EDGE('',*,*,#86,.T.);
#61=ORIENTED_EDGE('',*,*,#88,.T.);
#62=ORIENTED_EDGE('',*,*,#89,.F.);
#63=ORIENTED_EDGE('',*,*,#90,.F.);
#64=ORIENTED_EDGE('',*,*,#89,.T.);
#65=ORIENTED_EDGE('',*,*,#91,.T.);
#66=ORIENTED_EDGE('',*,*,#90,.T.);
#67=ORIENTED_EDGE('',*,*,#80,.F.);
#68=ORIENTED_EDGE('',*,*,#81,.F.);
#69=ORIENTED_EDGE('',*,*,#91,.F.);
#70=ORIENTED_EDGE('',*,*,#73,.F.);
#71=ORIENTED_EDGE('',*,*,#87,.F.);
#72=ORIENTED_EDGE('',*,*,#88,.F.);
#73=EDGE_CURVE('',#92,#92,#111,.F.);
#74=EDGE_CURVE('',#93,#93,#112,.T.);
#75=EDGE_CURVE('',#94,#94,#113,.T.);
#76=EDGE_CURVE('',#95,#95,#114,.T.);
#77=EDGE_CURVE('',#96,#96,#115,.T.);
#78=EDGE_CURVE('',#97,#97,#116,.T.);
#79=EDGE_CURVE('',#98,#98,#117,.T.);
#80=EDGE_CURVE('',#99,#99,#118,.F.);
#81=EDGE_CURVE('',#100,#100,#119,.T.);
#82=EDGE_CURVE('',#101,#101,#120,.T.);
#83=EDGE_CURVE('',#102,#102,#121,.T.);
#84=EDGE_CURVE('',#103,#103,#122,.T.);
#85=EDGE_CURVE('',#104,#104,#123,.T.);
#86=EDGE_CURVE('',#105,#105,#124,.T.);
#87=EDGE_CURVE('',#106,#106,#125,.T.);
#88=EDGE_CURVE('',#107,#107,#126,.F.);
#89=EDGE_CURVE('',#108,#108,#127,.T.);
#90=EDGE_CURVE('',#109,#109,#128,.T.);
#91=EDGE_CURVE('',#110,#110,#129,.T.);
#92=VERTEX_POINT('',#361);
#93=VERTEX_POINT('',#363);
#94=VERTEX_POINT('',#366);
#95=VERTEX_POINT('',#369);
#96=VERTEX_POINT('',#372);
#97=VERTEX_POINT('',#375);
#98=VERTEX_POINT('',#378);
#99=VERTEX_POINT('',#381);
#100=VERTEX_POINT('',#384);
#101=VERTEX_POINT('',#386);
#102=VERTEX_POINT('',#389);
#103=VERTEX_POINT('',#392);
#104=VERTEX_POINT('',#395);
#105=VERTEX_POINT('',#398);
#106=VERTEX_POINT('',#401);
#107=VERTEX_POINT('',#404);
#108=VERTEX_POINT('',#406);
#109=VERTEX_POINT('',#409);
#110=VERTEX_POINT('',#412);
#111=CIRCLE('',#243,34.5828427124746);
#112=CIRCLE('',#244,34.05);
#113=CIRCLE('',#246,33.95);
#114=CIRCLE('',#248,32.5);
#115=CIRCLE('',#250,32.5);
#116=CIRCLE('',#252,33.95);
#117=CIRCLE('',#254,34.05);
#118=CIRCLE('',#256,34.5828427124746);
#119=CIRCLE('',#258,34.8656854249492);
#120=CIRCLE('',#259,36.35);
#121=CIRCLE('',#261,36.65);
#122=CIRCLE('',#263,38.5);
#123=CIRCLE('',#265,38.5);
#124=CIRCLE('',#267,37.5);
#125=CIRCLE('',#269,37.5);
#126=CIRCLE('',#271,37.1);
#127=CIRCLE('',#272,36.65);
#128=CIRCLE('',#274,36.35);
#129=CIRCLE('',#276,34.8656854249492);
#130=EDGE_LOOP('',(#35));
#131=EDGE_LOOP('',(#36));
#132=EDGE_LOOP('',(#37));
#133=EDGE_LOOP('',(#38));
#134=EDGE_LOOP('',(#39));
#135=EDGE_LOOP('',(#40));
#136=EDGE_LOOP('',(#41));
#137=EDGE_LOOP('',(#42));
#138=EDGE_LOOP('',(#43));
#139=EDGE_LOOP('',(#44));
#140=EDGE_LOOP('',(#45));
#141=EDGE_LOOP('',(#46));
#142=EDGE_LOOP('',(#47));
#143=EDGE_LOOP('',(#48));
#144=EDGE_LOOP('',(#49));
#145=EDGE_LOOP('',(#50));
#146=EDGE_LOOP('',(#51));
#147=EDGE_LOOP('',(#52));
#148=EDGE_LOOP('',(#53));
#149=EDGE_LOOP('',(#54));
#150=EDGE_LOOP('',(#55));
#151=EDGE_LOOP('',(#56));
#152=EDGE_LOOP('',(#57));
#153=EDGE_LOOP('',(#58));
#154=EDGE_LOOP('',(#59));
#155=EDGE_LOOP('',(#60));
#156=EDGE_LOOP('',(#61));
#157=EDGE_LOOP('',(#62));
#158=EDGE_LOOP('',(#63));
#159=EDGE_LOOP('',(#64));
#160=EDGE_LOOP('',(#65));
#161=EDGE_LOOP('',(#66));
#162=EDGE_LOOP('',(#67));
#163=EDGE_LOOP('',(#68));
#164=EDGE_LOOP('',(#69));
#165=EDGE_LOOP('',(#70));
#166=EDGE_LOOP('',(#71));
#167=EDGE_LOOP('',(#72));
#168=FACE_BOUND('',#130,.T.);
#169=FACE_BOUND('',#131,.T.);
#170=FACE_BOUND('',#132,.T.);
#171=FACE_BOUND('',#133,.T.);
#172=FACE_BOUND('',#134,.T.);
#173=FACE_BOUND('',#135,.T.);
#174=FACE_BOUND('',#136,.T.);
#175=FACE_BOUND('',#137,.T.);
#176=FACE_BOUND('',#138,.T.);
#177=FACE_BOUND('',#139,.T.);
#178=FACE_BOUND('',#140,.T.);
#179=FACE_BOUND('',#141,.T.);
#180=FACE_BOUND('',#142,.T.);
#181=FACE_BOUND('',#143,.T.);
#182=FACE_BOUND('',#144,.T.);
#183=FACE_BOUND('',#145,.T.);
#184=FACE_BOUND('',#146,.T.);
#185=FACE_BOUND('',#147,.T.);
#186=FACE_BOUND('',#148,.T.);
#187=FACE_BOUND('',#149,.T.);
#188=FACE_BOUND('',#150,.T.);
#189=FACE_BOUND('',#151,.T.);
#190=FACE_BOUND('',#152,.T.);
#191=FACE_BOUND('',#153,.T.);
#192=FACE_BOUND('',#154,.T.);
#193=FACE_BOUND('',#155,.T.);
#194=FACE_BOUND('',#156,.T.);
#195=FACE_BOUND('',#157,.T.);
#196=FACE_BOUND('',#158,.T.);
#197=FACE_BOUND('',#159,.T.);
#198=FACE_BOUND('',#160,.T.);
#199=FACE_BOUND('',#161,.T.);
#200=FACE_BOUND('',#162,.T.);
#201=FACE_BOUND('',#163,.T.);
#202=FACE_BOUND('',#164,.T.);
#203=FACE_BOUND('',#165,.T.);
#204=FACE_BOUND('',#166,.T.);
#205=FACE_BOUND('',#167,.T.);
#206=CONICAL_SURFACE('',#242,34.7,0.785398163397448);
#207=CONICAL_SURFACE('',#247,33.95,0.785398163397446);
#208=CONICAL_SURFACE('',#251,32.5,0.785398163397446);
#209=CONICAL_SURFACE('',#255,34.05,0.785398163397453);
#210=ADVANCED_FACE('',(#168,#169),#206,.T.);
#211=ADVANCED_FACE('',(#170,#171),#28,.F.);
#212=ADVANCED_FACE('',(#172,#173),#207,.F.);
#213=ADVANCED_FACE('',(#174,#175),#25,.F.);
#214=ADVANCED_FACE('',(#176,#177),#208,.F.);
#215=ADVANCED_FACE('',(#178,#179),#29,.F.);
#216=ADVANCED_FACE('',(#180,#181),#209,.T.);
#217=ADVANCED_FACE('',(#182,#183),#30,.F.);
#218=ADVANCED_FACE('',(#184,#185),#20,.F.);
#219=ADVANCED_FACE('',(#186,#187),#31,.F.);
#220=ADVANCED_FACE('',(#188,#189),#26,.T.);
#221=ADVANCED_FACE('',(#190,#191),#32,.F.);
#222=ADVANCED_FACE('',(#192,#193),#27,.F.);
#223=ADVANCED_FACE('',(#194,#195),#33,.F.);
#224=ADVANCED_FACE('',(#196,#197),#21,.F.);
#225=ADVANCED_FACE('',(#198,#199),#34,.F.);
#226=ADVANCED_FACE('',(#200,#201),#22,.F.);
#227=ADVANCED_FACE('',(#202,#203),#23,.F.);
#228=ADVANCED_FACE('',(#204,#205),#24,.F.);
#229=CLOSED_SHELL('',(#210,#211,#212,#213,#214,#215,#216,#217,#218,#219,
#220,#221,#222,#223,#224,#225,#226,#227,#228));
#230=STYLED_ITEM('',(#231),#238);
#231=PRESENTATION_STYLE_ASSIGNMENT((#232));
#232=SURFACE_STYLE_USAGE(.BOTH.,#233);
#233=SURFACE_SIDE_STYLE('',(#234));
#234=SURFACE_STYLE_FILL_AREA(#235);
#235=FILL_AREA_STYLE('',(#236));
#236=FILL_AREA_STYLE_COLOUR('',#237);
#237=COLOUR_RGB('',0.506983280181885,0.531564235687256,0.550000011920929);
#238=MANIFOLD_SOLID_BREP('',#229);
#239=SHAPE_DEFINITION_REPRESENTATION(#422,#240);
#240=SHAPE_REPRESENTATION('34.050001.142.150az1',(#241),#417);
#241=AXIS2_PLACEMENT_3D('',#358,#280,#281);
#242=AXIS2_PLACEMENT_3D('',#359,#282,#283);
#243=AXIS2_PLACEMENT_3D('',#360,#284,#285);
#244=AXIS2_PLACEMENT_3D('',#362,#286,#287);
#245=AXIS2_PLACEMENT_3D('',#364,#288,#289);
#246=AXIS2_PLACEMENT_3D('',#365,#290,#291);
#247=AXIS2_PLACEMENT_3D('',#367,#292,#293);
#248=AXIS2_PLACEMENT_3D('',#368,#294,#295);
#249=AXIS2_PLACEMENT_3D('',#370,#296,#297);
#250=AXIS2_PLACEMENT_3D('',#371,#298,#299);
#251=AXIS2_PLACEMENT_3D('',#373,#300,#301);
#252=AXIS2_PLACEMENT_3D('',#374,#302,#303);
#253=AXIS2_PLACEMENT_3D('',#376,#304,#305);
#254=AXIS2_PLACEMENT_3D('',#377,#306,#307);
#255=AXIS2_PLACEMENT_3D('',#379,#308,#309);
#256=AXIS2_PLACEMENT_3D('',#380,#310,#311);
#257=AXIS2_PLACEMENT_3D('',#382,#312,#313);
#258=AXIS2_PLACEMENT_3D('',#383,#314,#315);
#259=AXIS2_PLACEMENT_3D('',#385,#316,#317);
#260=AXIS2_PLACEMENT_3D('',#387,#318,#319);
#261=AXIS2_PLACEMENT_3D('',#388,#320,#321);
#262=AXIS2_PLACEMENT_3D('',#390,#322,#323);
#263=AXIS2_PLACEMENT_3D('',#391,#324,#325);
#264=AXIS2_PLACEMENT_3D('',#393,#326,#327);
#265=AXIS2_PLACEMENT_3D('',#394,#328,#329);
#266=AXIS2_PLACEMENT_3D('',#396,#330,#331);
#267=AXIS2_PLACEMENT_3D('',#397,#332,#333);
#268=AXIS2_PLACEMENT_3D('',#399,#334,#335);
#269=AXIS2_PLACEMENT_3D('',#400,#336,#337);
#270=AXIS2_PLACEMENT_3D('',#402,#338,#339);
#271=AXIS2_PLACEMENT_3D('',#403,#340,#341);
#272=AXIS2_PLACEMENT_3D('',#405,#342,#343);
#273=AXIS2_PLACEMENT_3D('',#407,#344,#345);
#274=AXIS2_PLACEMENT_3D('',#408,#346,#347);
#275=AXIS2_PLACEMENT_3D('',#410,#348,#349);
#276=AXIS2_PLACEMENT_3D('',#411,#350,#351);
#277=AXIS2_PLACEMENT_3D('',#413,#352,#353);
#278=AXIS2_PLACEMENT_3D('',#414,#354,#355);
#279=AXIS2_PLACEMENT_3D('',#415,#356,#357);
#280=DIRECTION('',(0.,0.,1.));
#281=DIRECTION('',(1.,0.,0.));
#282=DIRECTION('',(1.,0.,0.));
#283=DIRECTION('',(0.,0.,-1.));
#284=DIRECTION('',(1.,0.,0.));
#285=DIRECTION('',(0.,0.,-1.));
#286=DIRECTION('',(-1.,0.,0.));
#287=DIRECTION('',(0.,0.,1.));
#288=DIRECTION('',(1.,0.,0.));
#289=DIRECTION('',(0.,0.,-1.));
#290=DIRECTION('',(-1.,0.,0.));
#291=DIRECTION('',(0.,0.,1.));
#292=DIRECTION('',(-1.,0.,0.));
#293=DIRECTION('',(0.,0.,1.));
#294=DIRECTION('',(-1.,0.,0.));
#295=DIRECTION('',(0.,0.,1.));
#296=DIRECTION('',(-1.,0.,0.));
#297=DIRECTION('',(0.,0.,1.));
#298=DIRECTION('',(-1.,0.,0.));
#299=DIRECTION('',(0.,0.,1.));
#300=DIRECTION('',(1.,0.,0.));
#301=DIRECTION('',(0.,0.,-1.));
#302=DIRECTION('',(-1.,0.,0.));
#303=DIRECTION('',(0.,0.,1.));
#304=DIRECTION('',(-1.,0.,0.));
#305=DIRECTION('',(0.,0.,1.));
#306=DIRECTION('',(-1.,0.,0.));
#307=DIRECTION('',(0.,0.,1.));
#308=DIRECTION('',(-1.,0.,0.));
#309=DIRECTION('',(0.,0.,1.));
#310=DIRECTION('',(-1.,0.,0.));
#311=DIRECTION('',(0.,0.,1.));
#312=DIRECTION('',(-1.,0.,0.));
#313=DIRECTION('',(0.,0.,1.));
#314=DIRECTION('',(-1.,0.,0.));
#315=DIRECTION('',(0.,0.,1.));
#316=DIRECTION('',(-1.,0.,0.));
#317=DIRECTION('',(0.,0.,1.));
#318=DIRECTION('',(-1.,0.,0.));
#319=DIRECTION('',(0.,0.,1.));
#320=DIRECTION('',(-1.,0.,0.));
#321=DIRECTION('',(0.,0.,1.));
#322=DIRECTION('',(-1.,0.,0.));
#323=DIRECTION('',(0.,0.,1.));
#324=DIRECTION('',(-1.,0.,0.));
#325=DIRECTION('',(0.,0.,1.));
#326=DIRECTION('',(-1.,0.,0.));
#327=DIRECTION('',(0.,0.,1.));
#328=DIRECTION('',(-1.,0.,0.));
#329=DIRECTION('',(0.,0.,1.));
#330=DIRECTION('',(1.,0.,0.));
#331=DIRECTION('',(0.,0.,-1.));
#332=DIRECTION('',(-1.,0.,0.));
#333=DIRECTION('',(0.,0.,1.));
#334=DIRECTION('',(-1.,0.,0.));
#335=DIRECTION('',(0.,0.,1.));
#336=DIRECTION('',(1.,0.,0.));
#337=DIRECTION('',(0.,0.,-1.));
#338=DIRECTION('',(1.,0.,0.));
#339=DIRECTION('',(0.,0.,-1.));
#340=DIRECTION('',(1.,0.,0.));
#341=DIRECTION('',(0.,0.,-1.));
#342=DIRECTION('',(-1.,0.,0.));
#343=DIRECTION('',(0.,0.,1.));
#344=DIRECTION('',(-1.,0.,0.));
#345=DIRECTION('',(0.,0.,1.));
#346=DIRECTION('',(-1.,0.,0.));
#347=DIRECTION('',(0.,0.,1.));
#348=DIRECTION('',(1.,0.,0.));
#349=DIRECTION('',(0.,0.,-1.));
#350=DIRECTION('',(1.,0.,0.));
#351=DIRECTION('',(0.,0.,-1.));
#352=DIRECTION('',(-1.,0.,0.));
#353=DIRECTION('',(0.,0.,1.));
#354=DIRECTION('',(1.,0.,0.));
#355=DIRECTION('',(0.,0.,-1.));
#356=DIRECTION('',(1.,0.,0.));
#357=DIRECTION('',(0.,0.,-1.));
#358=CARTESIAN_POINT('',(0.,0.,0.));
#359=CARTESIAN_POINT('',(-1.5,0.,0.));
#360=CARTESIAN_POINT('',(-1.61715728752537,0.,0.));
#361=CARTESIAN_POINT('',(-1.61715728752537,0.,-34.5828427124746));
#362=CARTESIAN_POINT('',(-2.15,0.,0.));
#363=CARTESIAN_POINT('',(-2.15,0.,34.05));
#364=CARTESIAN_POINT('',(-2.15,34.05,0.));
#365=CARTESIAN_POINT('',(-2.15,0.,0.));
#366=CARTESIAN_POINT('',(-2.15,0.,33.95));
#367=CARTESIAN_POINT('',(-2.15,0.,0.));
#368=CARTESIAN_POINT('',(-0.699999999999992,0.,0.));
#369=CARTESIAN_POINT('',(-0.699999999999992,0.,32.5));
#370=CARTESIAN_POINT('',(0.,0.,0.));
#371=CARTESIAN_POINT('',(0.699999999999992,0.,0.));
#372=CARTESIAN_POINT('',(0.699999999999992,0.,32.5));
#373=CARTESIAN_POINT('',(0.699999999999992,0.,0.));
#374=CARTESIAN_POINT('',(2.15,0.,0.));
#375=CARTESIAN_POINT('',(2.15,0.,33.95));
#376=CARTESIAN_POINT('',(2.15,34.05,0.));
#377=CARTESIAN_POINT('',(2.15,0.,0.));
#378=CARTESIAN_POINT('',(2.15,0.,34.05));
#379=CARTESIAN_POINT('',(2.15,0.,0.));
#380=CARTESIAN_POINT('',(1.61715728752538,0.,0.));
#381=CARTESIAN_POINT('',(1.61715728752538,0.,34.5828427124746));
#382=CARTESIAN_POINT('',(1.5,34.7,0.));
#383=CARTESIAN_POINT('',(1.5,0.,0.));
#384=CARTESIAN_POINT('',(1.5,0.,34.8656854249492));
#385=CARTESIAN_POINT('',(1.5,0.,0.));
#386=CARTESIAN_POINT('',(1.5,0.,36.35));
#387=CARTESIAN_POINT('',(1.5,0.,0.));
#388=CARTESIAN_POINT('',(1.5,0.,0.));
#389=CARTESIAN_POINT('',(1.5,0.,36.65));
#390=CARTESIAN_POINT('',(1.5,36.65,0.));
#391=CARTESIAN_POINT('',(1.5,0.,0.));
#392=CARTESIAN_POINT('',(1.5,0.,38.5));
#393=CARTESIAN_POINT('',(0.,0.,0.));
#394=CARTESIAN_POINT('',(-3.5,0.,0.));
#395=CARTESIAN_POINT('',(-3.5,0.,38.5));
#396=CARTESIAN_POINT('',(-3.5,37.5,0.));
#397=CARTESIAN_POINT('',(-3.5,0.,0.));
#398=CARTESIAN_POINT('',(-3.5,0.,37.5));
#399=CARTESIAN_POINT('',(0.,0.,0.));
#400=CARTESIAN_POINT('',(-1.9,0.,0.));
#401=CARTESIAN_POINT('',(-1.9,0.,-37.5));
#402=CARTESIAN_POINT('',(-1.5,36.65,0.));
#403=CARTESIAN_POINT('',(-1.5,0.,0.));
#404=CARTESIAN_POINT('',(-1.5,0.,-37.1));
#405=CARTESIAN_POINT('',(-1.5,0.,0.));
#406=CARTESIAN_POINT('',(-1.5,0.,36.65));
#407=CARTESIAN_POINT('',(-1.5,0.,0.));
#408=CARTESIAN_POINT('',(-1.5,0.,0.));
#409=CARTESIAN_POINT('',(-1.5,0.,36.35));
#410=CARTESIAN_POINT('',(-1.5,34.7,0.));
#411=CARTESIAN_POINT('',(-1.5,0.,0.));
#412=CARTESIAN_POINT('',(-1.5,0.,-34.8656854249492));
#413=CARTESIAN_POINT('',(1.9,0.,0.));
#414=CARTESIAN_POINT('',(-1.9,0.,0.));
#415=CARTESIAN_POINT('',(-1.9,0.,0.));
#416=MECHANICAL_DESIGN_GEOMETRIC_PRESENTATION_REPRESENTATION('',(#230),
#417);
#417=(
GEOMETRIC_REPRESENTATION_CONTEXT(3)
GLOBAL_UNCERTAINTY_ASSIGNED_CONTEXT((#418))
GLOBAL_UNIT_ASSIGNED_CONTEXT((#421,#420,#419))
REPRESENTATION_CONTEXT('34.050001.142.150az1','TOP_LEVEL_ASSEMBLY_PART')
);
#418=UNCERTAINTY_MEASURE_WITH_UNIT(LENGTH_MEASURE(0.005),#421,
'DISTANCE_ACCURACY_VALUE','Maximum Tolerance applied to model');
#419=(
NAMED_UNIT(*)
SI_UNIT($,.STERADIAN.)
SOLID_ANGLE_UNIT()
);
#420=(
NAMED_UNIT(*)
PLANE_ANGLE_UNIT()
SI_UNIT($,.RADIAN.)
);
#421=(
LENGTH_UNIT()
NAMED_UNIT(*)
SI_UNIT(.MILLI.,.METRE.)
);
#422=PRODUCT_DEFINITION_SHAPE('','',#423);
#423=PRODUCT_DEFINITION('','',#425,#424);
#424=PRODUCT_DEFINITION_CONTEXT('',#431,'design');
#425=PRODUCT_DEFINITION_FORMATION_WITH_SPECIFIED_SOURCE('','',#427,
 .NOT_KNOWN.);
#426=PRODUCT_RELATED_PRODUCT_CATEGORY('','',(#427));
#427=PRODUCT('34.050001.142.150az1','34.050001.142.150az1',
'34.050001.142.150az1',(#429));
#428=PRODUCT_CATEGORY('','');
#429=PRODUCT_CONTEXT('',#431,'mechanical');
#430=APPLICATION_PROTOCOL_DEFINITION('international standard',
'automotive_design',2010,#431);
#431=APPLICATION_CONTEXT(
'core data for automotive mechanical design processes');
ENDSEC;
END-ISO-10303-21;
