ISO-10303-21;
HEADER;
/* Generated by software containing ST-Developer
 * from STEP Tools, Inc. (www.steptools.com) 
 */
/* OPTION: strings as raw bytes, not using required /X/ escapes */

FILE_DESCRIPTION(
/* description */ (''),
/* implementation_level */ '2;1');

FILE_NAME(
/* name */ '34.063001.142.163-iz',
/* time_stamp */ '2019-04-17T08:32:26+02:00',
/* author */ ('Murat Coskun Bicak'),
/* organization */ ('Evac AG'),
/* preprocessor_version */ 'ST-DEVELOPER v16.7',
/* originating_system */ 'DEX',
/* authorisation */ $);

FILE_SCHEMA (('AUTOMOTIVE_DESIGN {1 0 10303 214 3 1 1}'));
ENDSEC;

DATA;
#10=PROPERTY_DEFINITION_REPRESENTATION(#14,#12);
#11=PROPERTY_DEFINITION_REPRESENTATION(#15,#13);
#12=REPRESENTATION('',(#16),#397);
#13=REPRESENTATION('',(#17),#397);
#14=PROPERTY_DEFINITION('pmi validation property','',#402);
#15=PROPERTY_DEFINITION('pmi validation property','',#402);
#16=VALUE_REPRESENTATION_ITEM('number of annotations',COUNT_MEASURE(0.));
#17=VALUE_REPRESENTATION_ITEM('number of views',COUNT_MEASURE(0.));
#18=SHAPE_REPRESENTATION_RELATIONSHIP('','',#229,#19);
#19=ADVANCED_BREP_SHAPE_REPRESENTATION('',(#227),#397);
#20=TOROIDAL_SURFACE('',#263,37.5843145750507,0.4);
#21=TOROIDAL_SURFACE('',#264,35.4,0.4);
#22=TOROIDAL_SURFACE('',#265,37.5843145750507,0.4);
#23=TOROIDAL_SURFACE('',#266,35.4,0.4);
#24=PLANE('',#236);
#25=PLANE('',#240);
#26=PLANE('',#246);
#27=PLANE('',#250);
#28=PLANE('',#254);
#29=PLANE('',#260);
#30=CONICAL_SURFACE('',#234,39.5,0.785398163397408);
#31=CONICAL_SURFACE('',#238,38.45,0.785398163397445);
#32=CONICAL_SURFACE('',#257,37.75,0.785398163397445);
#33=CONICAL_SURFACE('',#262,38.55,0.785398163397408);
#34=ORIENTED_EDGE('',*,*,#70,.F.);
#35=ORIENTED_EDGE('',*,*,#71,.T.);
#36=ORIENTED_EDGE('',*,*,#72,.F.);
#37=ORIENTED_EDGE('',*,*,#70,.T.);
#38=ORIENTED_EDGE('',*,*,#73,.F.);
#39=ORIENTED_EDGE('',*,*,#72,.T.);
#40=ORIENTED_EDGE('',*,*,#74,.T.);
#41=ORIENTED_EDGE('',*,*,#73,.T.);
#42=ORIENTED_EDGE('',*,*,#75,.T.);
#43=ORIENTED_EDGE('',*,*,#76,.T.);
#44=ORIENTED_EDGE('',*,*,#77,.T.);
#45=ORIENTED_EDGE('',*,*,#78,.F.);
#46=ORIENTED_EDGE('',*,*,#79,.F.);
#47=ORIENTED_EDGE('',*,*,#78,.T.);
#48=ORIENTED_EDGE('',*,*,#80,.F.);
#49=ORIENTED_EDGE('',*,*,#79,.T.);
#50=ORIENTED_EDGE('',*,*,#81,.F.);
#51=ORIENTED_EDGE('',*,*,#80,.T.);
#52=ORIENTED_EDGE('',*,*,#82,.T.);
#53=ORIENTED_EDGE('',*,*,#81,.T.);
#54=ORIENTED_EDGE('',*,*,#83,.T.);
#55=ORIENTED_EDGE('',*,*,#84,.T.);
#56=ORIENTED_EDGE('',*,*,#85,.T.);
#57=ORIENTED_EDGE('',*,*,#86,.F.);
#58=ORIENTED_EDGE('',*,*,#87,.F.);
#59=ORIENTED_EDGE('',*,*,#86,.T.);
#60=ORIENTED_EDGE('',*,*,#71,.F.);
#61=ORIENTED_EDGE('',*,*,#87,.T.);
#62=ORIENTED_EDGE('',*,*,#84,.F.);
#63=ORIENTED_EDGE('',*,*,#85,.F.);
#64=ORIENTED_EDGE('',*,*,#76,.F.);
#65=ORIENTED_EDGE('',*,*,#77,.F.);
#66=ORIENTED_EDGE('',*,*,#74,.F.);
#67=ORIENTED_EDGE('',*,*,#75,.F.);
#68=ORIENTED_EDGE('',*,*,#82,.F.);
#69=ORIENTED_EDGE('',*,*,#83,.F.);
#70=EDGE_CURVE('',#88,#88,#106,.T.);
#71=EDGE_CURVE('',#89,#89,#107,.T.);
#72=EDGE_CURVE('',#90,#90,#108,.T.);
#73=EDGE_CURVE('',#91,#91,#109,.T.);
#74=EDGE_CURVE('',#92,#92,#110,.F.);
#75=EDGE_CURVE('',#93,#93,#111,.F.);
#76=EDGE_CURVE('',#94,#94,#112,.T.);
#77=EDGE_CURVE('',#95,#95,#113,.F.);
#78=EDGE_CURVE('',#96,#96,#114,.T.);
#79=EDGE_CURVE('',#97,#97,#115,.T.);
#80=EDGE_CURVE('',#98,#98,#116,.T.);
#81=EDGE_CURVE('',#99,#99,#117,.T.);
#82=EDGE_CURVE('',#100,#100,#118,.F.);
#83=EDGE_CURVE('',#101,#101,#119,.T.);
#84=EDGE_CURVE('',#102,#102,#120,.F.);
#85=EDGE_CURVE('',#103,#103,#121,.F.);
#86=EDGE_CURVE('',#104,#104,#122,.T.);
#87=EDGE_CURVE('',#105,#105,#123,.T.);
#88=VERTEX_POINT('',#344);
#89=VERTEX_POINT('',#346);
#90=VERTEX_POINT('',#349);
#91=VERTEX_POINT('',#352);
#92=VERTEX_POINT('',#355);
#93=VERTEX_POINT('',#358);
#94=VERTEX_POINT('',#360);
#95=VERTEX_POINT('',#363);
#96=VERTEX_POINT('',#365);
#97=VERTEX_POINT('',#368);
#98=VERTEX_POINT('',#371);
#99=VERTEX_POINT('',#374);
#100=VERTEX_POINT('',#377);
#101=VERTEX_POINT('',#380);
#102=VERTEX_POINT('',#382);
#103=VERTEX_POINT('',#385);
#104=VERTEX_POINT('',#387);
#105=VERTEX_POINT('',#390);
#106=CIRCLE('',#232,39.5);
#107=CIRCLE('',#233,39.5);
#108=CIRCLE('',#235,38.55);
#109=CIRCLE('',#237,38.45);
#110=CIRCLE('',#239,37.8671572875254);
#111=CIRCLE('',#241,37.5843145750507);
#112=CIRCLE('',#242,35.4);
#113=CIRCLE('',#244,35.);
#114=CIRCLE('',#245,35.);
#115=CIRCLE('',#247,34.);
#116=CIRCLE('',#249,34.);
#117=CIRCLE('',#251,35.);
#118=CIRCLE('',#253,35.);
#119=CIRCLE('',#255,35.4);
#120=CIRCLE('',#256,37.5843145750507);
#121=CIRCLE('',#258,37.8671572875254);
#122=CIRCLE('',#259,38.45);
#123=CIRCLE('',#261,38.55);
#124=EDGE_LOOP('',(#34));
#125=EDGE_LOOP('',(#35));
#126=EDGE_LOOP('',(#36));
#127=EDGE_LOOP('',(#37));
#128=EDGE_LOOP('',(#38));
#129=EDGE_LOOP('',(#39));
#130=EDGE_LOOP('',(#40));
#131=EDGE_LOOP('',(#41));
#132=EDGE_LOOP('',(#42));
#133=EDGE_LOOP('',(#43));
#134=EDGE_LOOP('',(#44));
#135=EDGE_LOOP('',(#45));
#136=EDGE_LOOP('',(#46));
#137=EDGE_LOOP('',(#47));
#138=EDGE_LOOP('',(#48));
#139=EDGE_LOOP('',(#49));
#140=EDGE_LOOP('',(#50));
#141=EDGE_LOOP('',(#51));
#142=EDGE_LOOP('',(#52));
#143=EDGE_LOOP('',(#53));
#144=EDGE_LOOP('',(#54));
#145=EDGE_LOOP('',(#55));
#146=EDGE_LOOP('',(#56));
#147=EDGE_LOOP('',(#57));
#148=EDGE_LOOP('',(#58));
#149=EDGE_LOOP('',(#59));
#150=EDGE_LOOP('',(#60));
#151=EDGE_LOOP('',(#61));
#152=EDGE_LOOP('',(#62));
#153=EDGE_LOOP('',(#63));
#154=EDGE_LOOP('',(#64));
#155=EDGE_LOOP('',(#65));
#156=EDGE_LOOP('',(#66));
#157=EDGE_LOOP('',(#67));
#158=EDGE_LOOP('',(#68));
#159=EDGE_LOOP('',(#69));
#160=FACE_BOUND('',#124,.T.);
#161=FACE_BOUND('',#125,.T.);
#162=FACE_BOUND('',#126,.T.);
#163=FACE_BOUND('',#127,.T.);
#164=FACE_BOUND('',#128,.T.);
#165=FACE_BOUND('',#129,.T.);
#166=FACE_BOUND('',#130,.T.);
#167=FACE_BOUND('',#131,.T.);
#168=FACE_BOUND('',#132,.T.);
#169=FACE_BOUND('',#133,.T.);
#170=FACE_BOUND('',#134,.T.);
#171=FACE_BOUND('',#135,.T.);
#172=FACE_BOUND('',#136,.T.);
#173=FACE_BOUND('',#137,.T.);
#174=FACE_BOUND('',#138,.T.);
#175=FACE_BOUND('',#139,.T.);
#176=FACE_BOUND('',#140,.T.);
#177=FACE_BOUND('',#141,.T.);
#178=FACE_BOUND('',#142,.T.);
#179=FACE_BOUND('',#143,.T.);
#180=FACE_BOUND('',#144,.T.);
#181=FACE_BOUND('',#145,.T.);
#182=FACE_BOUND('',#146,.T.);
#183=FACE_BOUND('',#147,.T.);
#184=FACE_BOUND('',#148,.T.);
#185=FACE_BOUND('',#149,.T.);
#186=FACE_BOUND('',#150,.T.);
#187=FACE_BOUND('',#151,.T.);
#188=FACE_BOUND('',#152,.T.);
#189=FACE_BOUND('',#153,.T.);
#190=FACE_BOUND('',#154,.T.);
#191=FACE_BOUND('',#155,.T.);
#192=FACE_BOUND('',#156,.T.);
#193=FACE_BOUND('',#157,.T.);
#194=FACE_BOUND('',#158,.T.);
#195=FACE_BOUND('',#159,.T.);
#196=CYLINDRICAL_SURFACE('',#231,39.5);
#197=CYLINDRICAL_SURFACE('',#243,35.);
#198=CYLINDRICAL_SURFACE('',#248,34.);
#199=CYLINDRICAL_SURFACE('',#252,35.);
#200=ADVANCED_FACE('',(#160,#161),#196,.T.);
#201=ADVANCED_FACE('',(#162,#163),#30,.T.);
#202=ADVANCED_FACE('',(#164,#165),#24,.F.);
#203=ADVANCED_FACE('',(#166,#167),#31,.F.);
#204=ADVANCED_FACE('',(#168,#169),#25,.F.);
#205=ADVANCED_FACE('',(#170,#171),#197,.T.);
#206=ADVANCED_FACE('',(#172,#173),#26,.F.);
#207=ADVANCED_FACE('',(#174,#175),#198,.F.);
#208=ADVANCED_FACE('',(#176,#177),#27,.F.);
#209=ADVANCED_FACE('',(#178,#179),#199,.T.);
#210=ADVANCED_FACE('',(#180,#181),#28,.F.);
#211=ADVANCED_FACE('',(#182,#183),#32,.F.);
#212=ADVANCED_FACE('',(#184,#185),#29,.F.);
#213=ADVANCED_FACE('',(#186,#187),#33,.T.);
#214=ADVANCED_FACE('',(#188,#189),#20,.F.);
#215=ADVANCED_FACE('',(#190,#191),#21,.F.);
#216=ADVANCED_FACE('',(#192,#193),#22,.F.);
#217=ADVANCED_FACE('',(#194,#195),#23,.F.);
#218=CLOSED_SHELL('',(#200,#201,#202,#203,#204,#205,#206,#207,#208,#209,
#210,#211,#212,#213,#214,#215,#216,#217));
#219=STYLED_ITEM('',(#220),#227);
#220=PRESENTATION_STYLE_ASSIGNMENT((#221));
#221=SURFACE_STYLE_USAGE(.BOTH.,#222);
#222=SURFACE_SIDE_STYLE('',(#223));
#223=SURFACE_STYLE_FILL_AREA(#224);
#224=FILL_AREA_STYLE('',(#225));
#225=FILL_AREA_STYLE_COLOUR('',#226);
#226=COLOUR_RGB('',0.506983280181885,0.531564235687256,0.550000011920929);
#227=MANIFOLD_SOLID_BREP('',#218);
#228=SHAPE_DEFINITION_REPRESENTATION(#402,#229);
#229=SHAPE_REPRESENTATION('34.063001.142.163-iz',(#230),#397);
#230=AXIS2_PLACEMENT_3D('',#341,#267,#268);
#231=AXIS2_PLACEMENT_3D('',#342,#269,#270);
#232=AXIS2_PLACEMENT_3D('',#343,#271,#272);
#233=AXIS2_PLACEMENT_3D('',#345,#273,#274);
#234=AXIS2_PLACEMENT_3D('',#347,#275,#276);
#235=AXIS2_PLACEMENT_3D('',#348,#277,#278);
#236=AXIS2_PLACEMENT_3D('',#350,#279,#280);
#237=AXIS2_PLACEMENT_3D('',#351,#281,#282);
#238=AXIS2_PLACEMENT_3D('',#353,#283,#284);
#239=AXIS2_PLACEMENT_3D('',#354,#285,#286);
#240=AXIS2_PLACEMENT_3D('',#356,#287,#288);
#241=AXIS2_PLACEMENT_3D('',#357,#289,#290);
#242=AXIS2_PLACEMENT_3D('',#359,#291,#292);
#243=AXIS2_PLACEMENT_3D('',#361,#293,#294);
#244=AXIS2_PLACEMENT_3D('',#362,#295,#296);
#245=AXIS2_PLACEMENT_3D('',#364,#297,#298);
#246=AXIS2_PLACEMENT_3D('',#366,#299,#300);
#247=AXIS2_PLACEMENT_3D('',#367,#301,#302);
#248=AXIS2_PLACEMENT_3D('',#369,#303,#304);
#249=AXIS2_PLACEMENT_3D('',#370,#305,#306);
#250=AXIS2_PLACEMENT_3D('',#372,#307,#308);
#251=AXIS2_PLACEMENT_3D('',#373,#309,#310);
#252=AXIS2_PLACEMENT_3D('',#375,#311,#312);
#253=AXIS2_PLACEMENT_3D('',#376,#313,#314);
#254=AXIS2_PLACEMENT_3D('',#378,#315,#316);
#255=AXIS2_PLACEMENT_3D('',#379,#317,#318);
#256=AXIS2_PLACEMENT_3D('',#381,#319,#320);
#257=AXIS2_PLACEMENT_3D('',#383,#321,#322);
#258=AXIS2_PLACEMENT_3D('',#384,#323,#324);
#259=AXIS2_PLACEMENT_3D('',#386,#325,#326);
#260=AXIS2_PLACEMENT_3D('',#388,#327,#328);
#261=AXIS2_PLACEMENT_3D('',#389,#329,#330);
#262=AXIS2_PLACEMENT_3D('',#391,#331,#332);
#263=AXIS2_PLACEMENT_3D('',#392,#333,#334);
#264=AXIS2_PLACEMENT_3D('',#393,#335,#336);
#265=AXIS2_PLACEMENT_3D('',#394,#337,#338);
#266=AXIS2_PLACEMENT_3D('',#395,#339,#340);
#267=DIRECTION('',(0.,0.,1.));
#268=DIRECTION('',(1.,0.,0.));
#269=DIRECTION('',(-1.,0.,0.));
#270=DIRECTION('',(0.,0.,1.));
#271=DIRECTION('',(-1.,0.,0.));
#272=DIRECTION('',(0.,0.,1.));
#273=DIRECTION('',(-1.,0.,0.));
#274=DIRECTION('',(0.,0.,1.));
#275=DIRECTION('',(1.,0.,0.));
#276=DIRECTION('',(0.,0.,-1.));
#277=DIRECTION('',(-1.,0.,0.));
#278=DIRECTION('',(0.,0.,1.));
#279=DIRECTION('',(1.,0.,0.));
#280=DIRECTION('',(0.,0.,-1.));
#281=DIRECTION('',(-1.,0.,0.));
#282=DIRECTION('',(0.,0.,1.));
#283=DIRECTION('',(-1.,0.,0.));
#284=DIRECTION('',(0.,0.,1.));
#285=DIRECTION('',(-1.,0.,0.));
#286=DIRECTION('',(0.,0.,1.));
#287=DIRECTION('',(1.,0.,0.));
#288=DIRECTION('',(0.,0.,-1.));
#289=DIRECTION('',(1.,0.,0.));
#290=DIRECTION('',(0.,0.,-1.));
#291=DIRECTION('',(1.,0.,0.));
#292=DIRECTION('',(0.,0.,-1.));
#293=DIRECTION('',(-1.,0.,0.));
#294=DIRECTION('',(0.,0.,1.));
#295=DIRECTION('',(1.,0.,0.));
#296=DIRECTION('',(0.,0.,-1.));
#297=DIRECTION('',(-1.,0.,0.));
#298=DIRECTION('',(0.,0.,1.));
#299=DIRECTION('',(1.,0.,0.));
#300=DIRECTION('',(0.,0.,-1.));
#301=DIRECTION('',(-1.,0.,0.));
#302=DIRECTION('',(0.,0.,1.));
#303=DIRECTION('',(-1.,0.,0.));
#304=DIRECTION('',(0.,0.,1.));
#305=DIRECTION('',(-1.,0.,0.));
#306=DIRECTION('',(0.,0.,1.));
#307=DIRECTION('',(-1.,0.,0.));
#308=DIRECTION('',(0.,0.,1.));
#309=DIRECTION('',(-1.,0.,0.));
#310=DIRECTION('',(0.,0.,1.));
#311=DIRECTION('',(-1.,0.,0.));
#312=DIRECTION('',(0.,0.,1.));
#313=DIRECTION('',(-1.,0.,0.));
#314=DIRECTION('',(0.,0.,1.));
#315=DIRECTION('',(-1.,0.,0.));
#316=DIRECTION('',(0.,0.,1.));
#317=DIRECTION('',(-1.,0.,0.));
#318=DIRECTION('',(0.,0.,1.));
#319=DIRECTION('',(-1.,0.,0.));
#320=DIRECTION('',(0.,0.,1.));
#321=DIRECTION('',(1.,0.,0.));
#322=DIRECTION('',(0.,0.,-1.));
#323=DIRECTION('',(1.,0.,0.));
#324=DIRECTION('',(0.,0.,-1.));
#325=DIRECTION('',(-1.,0.,0.));
#326=DIRECTION('',(0.,0.,1.));
#327=DIRECTION('',(-1.,0.,0.));
#328=DIRECTION('',(0.,0.,1.));
#329=DIRECTION('',(-1.,0.,0.));
#330=DIRECTION('',(0.,0.,1.));
#331=DIRECTION('',(-1.,0.,0.));
#332=DIRECTION('',(0.,0.,1.));
#333=DIRECTION('',(-1.,0.,0.));
#334=DIRECTION('',(0.,0.,1.));
#335=DIRECTION('',(1.,0.,0.));
#336=DIRECTION('',(0.,0.,-1.));
#337=DIRECTION('',(1.,0.,0.));
#338=DIRECTION('',(0.,0.,-1.));
#339=DIRECTION('',(-1.,0.,0.));
#340=DIRECTION('',(0.,0.,1.));
#341=CARTESIAN_POINT('',(0.,0.,0.));
#342=CARTESIAN_POINT('',(0.,0.,0.));
#343=CARTESIAN_POINT('',(-1.24999999999996,0.,0.));
#344=CARTESIAN_POINT('',(-1.24999999999996,0.,39.5));
#345=CARTESIAN_POINT('',(1.24999999999996,0.,0.));
#346=CARTESIAN_POINT('',(1.24999999999996,0.,39.5));
#347=CARTESIAN_POINT('',(-1.24999999999996,0.,0.));
#348=CARTESIAN_POINT('',(-2.20000000000004,0.,0.));
#349=CARTESIAN_POINT('',(-2.20000000000004,0.,38.55));
#350=CARTESIAN_POINT('',(-2.20000000000004,0.,38.55));
#351=CARTESIAN_POINT('',(-2.20000000000004,0.,0.));
#352=CARTESIAN_POINT('',(-2.20000000000004,0.,38.45));
#353=CARTESIAN_POINT('',(-2.20000000000004,0.,0.));
#354=CARTESIAN_POINT('',(-1.61715728752539,0.,0.));
#355=CARTESIAN_POINT('',(-1.61715728752539,0.,37.8671572875254));
#356=CARTESIAN_POINT('',(-1.5,0.,37.75));
#357=CARTESIAN_POINT('',(-1.5,0.,0.));
#358=CARTESIAN_POINT('',(-1.5,0.,-37.5843145750507));
#359=CARTESIAN_POINT('',(-1.5,0.,0.));
#360=CARTESIAN_POINT('',(-1.5,0.,-35.4));
#361=CARTESIAN_POINT('',(0.,0.,0.));
#362=CARTESIAN_POINT('',(-1.9,0.,0.));
#363=CARTESIAN_POINT('',(-1.9,0.,-35.));
#364=CARTESIAN_POINT('',(-3.35,0.,0.));
#365=CARTESIAN_POINT('',(-3.35,0.,35.));
#366=CARTESIAN_POINT('',(-3.35,0.,35.));
#367=CARTESIAN_POINT('',(-3.35,0.,0.));
#368=CARTESIAN_POINT('',(-3.35,0.,34.));
#369=CARTESIAN_POINT('',(0.,0.,0.));
#370=CARTESIAN_POINT('',(3.35,0.,0.));
#371=CARTESIAN_POINT('',(3.35,0.,34.));
#372=CARTESIAN_POINT('',(3.35,0.,34.));
#373=CARTESIAN_POINT('',(3.35,0.,0.));
#374=CARTESIAN_POINT('',(3.35,0.,35.));
#375=CARTESIAN_POINT('',(0.,0.,0.));
#376=CARTESIAN_POINT('',(1.9,0.,0.));
#377=CARTESIAN_POINT('',(1.9,0.,35.));
#378=CARTESIAN_POINT('',(1.5,0.,35.));
#379=CARTESIAN_POINT('',(1.5,0.,0.));
#380=CARTESIAN_POINT('',(1.5,0.,35.4));
#381=CARTESIAN_POINT('',(1.5,0.,0.));
#382=CARTESIAN_POINT('',(1.5,0.,37.5843145750507));
#383=CARTESIAN_POINT('',(1.5,0.,0.));
#384=CARTESIAN_POINT('',(1.61715728752539,0.,0.));
#385=CARTESIAN_POINT('',(1.61715728752539,0.,-37.8671572875254));
#386=CARTESIAN_POINT('',(2.20000000000004,0.,0.));
#387=CARTESIAN_POINT('',(2.20000000000004,0.,38.45));
#388=CARTESIAN_POINT('',(2.20000000000004,0.,38.45));
#389=CARTESIAN_POINT('',(2.20000000000004,0.,0.));
#390=CARTESIAN_POINT('',(2.20000000000004,0.,38.55));
#391=CARTESIAN_POINT('',(2.20000000000004,0.,0.));
#392=CARTESIAN_POINT('',(1.9,0.,0.));
#393=CARTESIAN_POINT('',(-1.9,0.,0.));
#394=CARTESIAN_POINT('',(-1.9,0.,0.));
#395=CARTESIAN_POINT('',(1.9,0.,0.));
#396=MECHANICAL_DESIGN_GEOMETRIC_PRESENTATION_REPRESENTATION('',(#219),
#397);
#397=(
GEOMETRIC_REPRESENTATION_CONTEXT(3)
GLOBAL_UNCERTAINTY_ASSIGNED_CONTEXT((#398))
GLOBAL_UNIT_ASSIGNED_CONTEXT((#401,#400,#399))
REPRESENTATION_CONTEXT('34.063001.142.163-iz','TOP_LEVEL_ASSEMBLY_PART')
);
#398=UNCERTAINTY_MEASURE_WITH_UNIT(LENGTH_MEASURE(0.005),#401,
'DISTANCE_ACCURACY_VALUE','Maximum Tolerance applied to model');
#399=(
NAMED_UNIT(*)
SI_UNIT($,.STERADIAN.)
SOLID_ANGLE_UNIT()
);
#400=(
NAMED_UNIT(*)
PLANE_ANGLE_UNIT()
SI_UNIT($,.RADIAN.)
);
#401=(
LENGTH_UNIT()
NAMED_UNIT(*)
SI_UNIT(.MILLI.,.METRE.)
);
#402=PRODUCT_DEFINITION_SHAPE('','',#403);
#403=PRODUCT_DEFINITION('','',#405,#404);
#404=PRODUCT_DEFINITION_CONTEXT('',#411,'design');
#405=PRODUCT_DEFINITION_FORMATION_WITH_SPECIFIED_SOURCE('','',#407,
 .NOT_KNOWN.);
#406=PRODUCT_RELATED_PRODUCT_CATEGORY('','',(#407));
#407=PRODUCT('34.063001.142.163-iz','34.063001.142.163-iz',
'34.063001.142.163-iz',(#409));
#408=PRODUCT_CATEGORY('','');
#409=PRODUCT_CONTEXT('',#411,'mechanical');
#410=APPLICATION_PROTOCOL_DEFINITION('international standard',
'automotive_design',2010,#411);
#411=APPLICATION_CONTEXT(
'core data for automotive mechanical design processes');
ENDSEC;
END-ISO-10303-21;
