ISO-10303-21;
HEADER;
FILE_DESCRIPTION (( 'STEP AP203' ),
    '1' );
FILE_NAME ('ISO250B267-304.STEP',
    '2022-07-20T10:32:52',
    ( '' ),
    ( '' ),
    'SwSTEP 2.0',
    'SolidWorks 2022',
    '' );
FILE_SCHEMA (( 'CONFIG_CONTROL_DESIGN' ));
ENDSEC;

DATA;
#1 = CC_DESIGN_APPROVAL ( #69, ( #231 ) ) ;
#2 = CARTESIAN_POINT ( 'NONE',  ( 2.344816390529635974, 7.042977312466230445E-15, -144.9999999999996021 ) ) ;
#3 = EDGE_LOOP ( 'NONE', ( #160 ) ) ;
#4 = ADVANCED_FACE ( 'NONE', ( #140, #94 ), #179, .F. ) ;
#5 = CARTESIAN_POINT ( 'NONE',  ( 0.000000000000000000, 130.4999999999996021, 8.372722626163785609E-15 ) ) ;
#6 = CALENDAR_DATE ( 2022, 20, 7 ) ;
#7 = AXIS2_PLACEMENT_3D ( 'NONE', #29, #130, #106 ) ;
#8 = APPROVAL_DATE_TIME ( #171, #69 ) ;
#9 = DIRECTION ( 'NONE',  ( 1.000000000000000000, -2.366582715663035416E-29, 8.874685183736382811E-31 ) ) ;
#10 = CALENDAR_DATE ( 2022, 20, 7 ) ;
#11 = DIRECTION ( 'NONE',  ( 0.000000000000000000, 4.857225732735072807E-17, -1.000000000000000000 ) ) ;
#12 = AXIS2_PLACEMENT_3D ( 'NONE', #127, #232, #252 ) ;
#13 = PERSON_AND_ORGANIZATION_ROLE ( 'creator' ) ;
#14 = DIRECTION ( 'NONE',  ( 1.000000000000000000, -2.366582715663035416E-29, 8.874685183736382811E-31 ) ) ;
#15 = CIRCLE ( 'NONE', #220, 142.4999999999996021 ) ;
#16 = DIRECTION ( 'NONE',  ( -1.676329423594654641E-30, 4.857225732735072807E-17, -1.000000000000000000 ) ) ;
#17 = CARTESIAN_POINT ( 'NONE',  ( 12.00000000000001066, -3.944304526105059027E-28, -3.944304526105059027E-27 ) ) ;
#18 = EDGE_LOOP ( 'NONE', ( #120 ) ) ;
#19 = ORIENTED_EDGE ( 'NONE', *, *, #119, .T. ) ;
#20 = LOCAL_TIME ( 11, 32, 52.00000000000000000, #276 ) ;
#21 = ORIENTED_EDGE ( 'NONE', *, *, #218, .F. ) ;
#22 = FACE_OUTER_BOUND ( 'NONE', #142, .T. ) ;
#23 = CC_DESIGN_PERSON_AND_ORGANIZATION_ASSIGNMENT ( #60, #210, ( #231 ) ) ;
#24 =( LENGTH_UNIT ( ) NAMED_UNIT ( * ) SI_UNIT ( .MILLI., .METRE. ) );
#25 = PLANE ( 'NONE',  #278 ) ;
#26 = ADVANCED_FACE ( 'NONE', ( #145, #101 ), #186, .T. ) ;
#27 = APPLICATION_PROTOCOL_DEFINITION ( 'international standard', 'config_control_design', 1994, #213 ) ;
#28 = CARTESIAN_POINT ( 'NONE',  ( 10.00000000000000888, 142.4999999999994316, -7.239788657627478240E-15 ) ) ;
#29 = CARTESIAN_POINT ( 'NONE',  ( 6.000000000000005329, 2.366582715663035416E-27, -4.338734978715564930E-27 ) ) ;
#30 = CARTESIAN_POINT ( 'NONE',  ( 12.00000000000001066, -3.944304526105059027E-28, -3.944304526105059027E-27 ) ) ;
#31 = CIRCLE ( 'NONE', #71, 130.4999999999996305 ) ;
#32 = APPLICATION_PROTOCOL_DEFINITION ( 'international standard', 'config_control_design', 1994, #206 ) ;
#33 = CARTESIAN_POINT ( 'NONE',  ( 6.000000000000005329, 2.366582715663035416E-27, -4.338734978715564930E-27 ) ) ;
#34 = ADVANCED_FACE ( 'NONE', ( #188, #152 ), #235, .T. ) ;
#35 = APPROVAL_DATE_TIME ( #153, #116 ) ;
#36 = FACE_OUTER_BOUND ( 'NONE', #159, .T. ) ;
#37 = APPROVAL_STATUS ( 'not_yet_approved' ) ;
#38 = CC_DESIGN_PERSON_AND_ORGANIZATION_ASSIGNMENT ( #88, #189, ( #65 ) ) ;
#39 = CIRCLE ( 'NONE', #79, 133.7499999999996305 ) ;
#40 = DIRECTION ( 'NONE',  ( 0.000000000000000000, 4.857225732735072190E-17, -1.000000000000000000 ) ) ;
#41 = CARTESIAN_POINT ( 'NONE',  ( 12.00000000000001066, -3.944304526105059027E-28, -3.944304526105059027E-27 ) ) ;
#42 = PRODUCT_DEFINITION_FORMATION_WITH_SPECIFIED_SOURCE ( 'ANY', '', #185, .NOT_KNOWN. ) ;
#43 = EDGE_LOOP ( 'NONE', ( #228 ) ) ;
#44 = AXIS2_PLACEMENT_3D ( 'NONE', #68, #158, #245 ) ;
#45 = ADVANCED_FACE ( 'NONE', ( #190, #166 ), #82, .T. ) ;
#46 = ORIENTED_EDGE ( 'NONE', *, *, #87, .F. ) ;
#47 = ORIENTED_EDGE ( 'NONE', *, *, #64, .T. ) ;
#48 = EDGE_CURVE ( 'NONE', #257, #257, #15, .T. ) ;
#49 = CARTESIAN_POINT ( 'NONE',  ( 10.00000000000000888, 6.921546669147459518E-15, -142.4999999999996021 ) ) ;
#50 = EDGE_LOOP ( 'NONE', ( #269 ) ) ;
#51 = CARTESIAN_POINT ( 'NONE',  ( 7.655183609470345374, 7.042977312463863862E-15, -144.9999999999996021 ) ) ;
#52 = TOROIDAL_SURFACE ( 'NONE', #12, 145.1599999999999966, 2.660000000000000586 ) ;
#53 = CARTESIAN_POINT ( 'NONE',  ( 6.000000000000005329, 6.338679581221619706E-15, -130.4999999999996305 ) ) ;
#54 = CARTESIAN_POINT ( 'NONE',  ( 10.00000000000000888, 6.496539417533140991E-15, -133.7499999999996305 ) ) ;
#55 = DATE_TIME_ROLE ( 'classification_date' ) ;
#56 = LOCAL_TIME ( 11, 32, 52.00000000000000000, #170 ) ;
#57 = CC_DESIGN_PERSON_AND_ORGANIZATION_ASSIGNMENT ( #262, #13, ( #42 ) ) ;
#58 = APPROVAL_STATUS ( 'not_yet_approved' ) ;
#59 = FACE_OUTER_BOUND ( 'NONE', #124, .T. ) ;
#60 = PERSON_AND_ORGANIZATION ( #141, #259 ) ;
#61 = DIRECTION ( 'NONE',  ( 0.000000000000000000, 4.857225732735072807E-17, -1.000000000000000000 ) ) ;
#62 = ADVANCED_BREP_SHAPE_REPRESENTATION ( 'ISO250B267-304', ( #229, #246 ), #104 ) ;
#63 = DATE_AND_TIME ( #10, #20 ) ;
#64 = EDGE_CURVE ( 'NONE', #255, #255, #243, .T. ) ;
#65 = SECURITY_CLASSIFICATION ( '', '', #238 ) ;
#66 = COORDINATED_UNIVERSAL_TIME_OFFSET ( 0, 0, .AHEAD. ) ;
#67 = CYLINDRICAL_SURFACE ( 'NONE', #177, 133.7499999999996305 ) ;
#68 = CARTESIAN_POINT ( 'NONE',  ( 12.00000000000001066, -3.944304526105059027E-28, -3.944304526105059027E-27 ) ) ;
#69 = APPROVAL ( #260, 'UNSPECIFIED' ) ;
#70 = EDGE_LOOP ( 'NONE', ( #200 ) ) ;
#71 = AXIS2_PLACEMENT_3D ( 'NONE', #156, #221, #261 ) ;
#72 = ORIENTED_EDGE ( 'NONE', *, *, #64, .F. ) ;
#73 = EDGE_CURVE ( 'NONE', #183, #183, #287, .T. ) ;
#74 = FACE_OUTER_BOUND ( 'NONE', #180, .T. ) ;
#75 = DIRECTION ( 'NONE',  ( 0.000000000000000000, 4.857225732735072807E-17, -1.000000000000000000 ) ) ;
#76 = VERTEX_POINT ( 'NONE', #254 ) ;
#77 = VERTEX_POINT ( 'NONE', #54 ) ;
#78 = DIRECTION ( 'NONE',  ( -1.000000000000000000, 2.366582715663035696E-29, 1.676329423594655692E-30 ) ) ;
#79 = AXIS2_PLACEMENT_3D ( 'NONE', #282, #279, #242 ) ;
#80 = DIRECTION ( 'NONE',  ( 1.000000000000000000, 0.000000000000000000, 0.000000000000000000 ) ) ;
#81 = LOCAL_TIME ( 11, 32, 52.00000000000000000, #66 ) ;
#82 = CYLINDRICAL_SURFACE ( 'NONE', #44, 144.9999999999996021 ) ;
#83 = DATE_TIME_ROLE ( 'creation_date' ) ;
#84 = PLANE ( 'NONE',  #126 ) ;
#85 = CIRCLE ( 'NONE', #248, 142.4999999999996021 ) ;
#86 = PERSON_AND_ORGANIZATION ( #141, #259 ) ;
#87 = EDGE_CURVE ( 'NONE', #77, #77, #39, .T. ) ;
#88 = PERSON_AND_ORGANIZATION ( #141, #259 ) ;
#89 = FACE_OUTER_BOUND ( 'NONE', #253, .T. ) ;
#90 = CARTESIAN_POINT ( 'NONE',  ( 0.000000000000000000, 0.000000000000000000, 0.000000000000000000 ) ) ;
#91 = AXIS2_PLACEMENT_3D ( 'NONE', #17, #137, #222 ) ;
#92 = EDGE_CURVE ( 'NONE', #129, #129, #31, .T. ) ;
#93 = ORIENTED_EDGE ( 'NONE', *, *, #92, .T. ) ;
#94 = FACE_OUTER_BOUND ( 'NONE', #70, .T. ) ;
#95 = CLOSED_SHELL ( 'NONE', ( #138, #34, #268, #251, #4, #234, #45, #283, #161, #26 ) ) ;
#96 = CC_DESIGN_DATE_AND_TIME_ASSIGNMENT ( #63, #83, ( #231 ) ) ;
#97 = EDGE_LOOP ( 'NONE', ( #19 ) ) ;
#98 = DIRECTION ( 'NONE',  ( -1.676329423594654641E-30, 4.857225732735073423E-17, -1.000000000000000000 ) ) ;
#99 = CARTESIAN_POINT ( 'NONE',  ( 12.00000000000001066, -3.944304526105059027E-28, -3.944304526105059027E-27 ) ) ;
#100 = CARTESIAN_POINT ( 'NONE',  ( 12.00000000000001066, 7.042977312465441584E-15, -144.9999999999996021 ) ) ;
#101 = FACE_OUTER_BOUND ( 'NONE', #117, .T. ) ;
#102 =( NAMED_UNIT ( * ) PLANE_ANGLE_UNIT ( ) SI_UNIT ( $, .RADIAN. ) );
#103 =( NAMED_UNIT ( * ) SI_UNIT ( $, .STERADIAN. ) SOLID_ANGLE_UNIT ( ) );
#104 =( GEOMETRIC_REPRESENTATION_CONTEXT ( 3 ) GLOBAL_UNCERTAINTY_ASSIGNED_CONTEXT ( ( #240 ) ) GLOBAL_UNIT_ASSIGNED_CONTEXT ( ( #24, #102, #103 ) ) REPRESENTATION_CONTEXT ( 'NONE', 'WORKASPACE' ) );
#105 = PERSON_AND_ORGANIZATION_ROLE ( 'design_owner' ) ;
#106 = DIRECTION ( 'NONE',  ( -1.676329423594654641E-30, 4.857225732735073423E-17, -1.000000000000000000 ) ) ;
#107 = AXIS2_PLACEMENT_3D ( 'NONE', #154, #14, #111 ) ;
#108 = PERSON_AND_ORGANIZATION ( #141, #259 ) ;
#109 = DIRECTION ( 'NONE',  ( 0.000000000000000000, 4.857225732735072807E-17, -1.000000000000000000 ) ) ;
#110 = FACE_OUTER_BOUND ( 'NONE', #43, .T. ) ;
#111 = DIRECTION ( 'NONE',  ( 0.000000000000000000, 4.857225732735073423E-17, -1.000000000000000000 ) ) ;
#112 = PERSON_AND_ORGANIZATION ( #141, #259 ) ;
#113 = CARTESIAN_POINT ( 'NONE',  ( 7.655183609470345374, -1.972152263052529514E-27, 0.000000000000000000 ) ) ;
#114 = APPROVAL_PERSON_ORGANIZATION ( #86, #116, #151 ) ;
#115 = DIRECTION ( 'NONE',  ( 0.000000000000000000, 4.857225732735072190E-17, -1.000000000000000000 ) ) ;
#116 = APPROVAL ( #58, 'UNSPECIFIED' ) ;
#117 = EDGE_LOOP ( 'NONE', ( #289 ) ) ;
#118 = CC_DESIGN_SECURITY_CLASSIFICATION ( #65, ( #42 ) ) ;
#119 = EDGE_CURVE ( 'NONE', #233, #233, #121, .T. ) ;
#120 = ORIENTED_EDGE ( 'NONE', *, *, #167, .F. ) ;
#121 = CIRCLE ( 'NONE', #164, 144.9999999999996021 ) ;
#122 = EDGE_LOOP ( 'NONE', ( #272 ) ) ;
#123 = VERTEX_POINT ( 'NONE', #2 ) ;
#124 = EDGE_LOOP ( 'NONE', ( #178 ) ) ;
#125 = CARTESIAN_POINT ( 'NONE',  ( 6.000000000000005329, 6.496539417535507574E-15, -133.7499999999996305 ) ) ;
#126 = AXIS2_PLACEMENT_3D ( 'NONE', #148, #270, #227 ) ;
#127 = CARTESIAN_POINT ( 'NONE',  ( 4.999999999999976907, -1.577721810442023611E-27, -5.127595883936576735E-27 ) ) ;
#128 = EDGE_CURVE ( 'NONE', #123, #123, #143, .T. ) ;
#129 = VERTEX_POINT ( 'NONE', #208 ) ;
#130 = DIRECTION ( 'NONE',  ( 1.000000000000000000, -2.366582715663035696E-29, -1.676329423594655692E-30 ) ) ;
#131 = CIRCLE ( 'NONE', #284, 133.7499999999996305 ) ;
#132 = CALENDAR_DATE ( 2022, 20, 7 ) ;
#133 = DIRECTION ( 'NONE',  ( 1.000000000000000000, -2.366582715663035416E-29, 8.874685183736382811E-31 ) ) ;
#134 = SHAPE_DEFINITION_REPRESENTATION ( #149, #62 ) ;
#135 = COORDINATED_UNIVERSAL_TIME_OFFSET ( 0, 0, .AHEAD. ) ;
#136 = AXIS2_PLACEMENT_3D ( 'NONE', #30, #9, #109 ) ;
#137 = DIRECTION ( 'NONE',  ( 1.000000000000000000, -2.366582715663035416E-29, 8.874685183736382811E-31 ) ) ;
#138 = ADVANCED_FACE ( 'NONE', ( #176, #89 ), #175, .F. ) ;
#139 = DIRECTION ( 'NONE',  ( 1.000000000000000000, -2.366582715663035416E-29, 8.874685183736382811E-31 ) ) ;
#140 = FACE_OUTER_BOUND ( 'NONE', #286, .T. ) ;
#141 = PERSON ( 'UNSPECIFIED', 'UNSPECIFIED', 'UNSPECIFIED', ('UNSPECIFIED'), ('UNSPECIFIED'), ('UNSPECIFIED') ) ;
#142 = EDGE_LOOP ( 'NONE', ( #288 ) ) ;
#143 = CIRCLE ( 'NONE', #187, 144.9999999999996021 ) ;
#144 = CARTESIAN_POINT ( 'NONE',  ( -2.430677664212242625E-28, 7.042977312465836014E-15, -144.9999999999996021 ) ) ;
#145 = FACE_BOUND ( 'NONE', #198, .T. ) ;
#146 = FACE_OUTER_BOUND ( 'NONE', #267, .T. ) ;
#147 = APPROVAL_PERSON_ORGANIZATION ( #212, #214, #192 ) ;
#148 = CARTESIAN_POINT ( 'NONE',  ( 12.00000000000001066, 145.0000000000001421, 1.531161653007101399E-14 ) ) ;
#149 = PRODUCT_DEFINITION_SHAPE ( 'NONE', 'NONE',  #231 ) ;
#150 = CC_DESIGN_PERSON_AND_ORGANIZATION_ASSIGNMENT ( #112, #105, ( #185 ) ) ;
#151 = APPROVAL_ROLE ( '' ) ;
#152 = FACE_OUTER_BOUND ( 'NONE', #122, .T. ) ;
#153 = DATE_AND_TIME ( #6, #56 ) ;
#154 = CARTESIAN_POINT ( 'NONE',  ( 6.000000000000005329, 2.366582715663035416E-27, -4.338734978715564930E-27 ) ) ;
#155 = PERSON_AND_ORGANIZATION ( #141, #259 ) ;
#156 = CARTESIAN_POINT ( 'NONE',  ( 0.000000000000000000, 0.000000000000000000, 0.000000000000000000 ) ) ;
#157 = PRODUCT_RELATED_PRODUCT_CATEGORY ( 'detail', '', ( #185 ) ) ;
#158 = DIRECTION ( 'NONE',  ( 1.000000000000000000, -2.366582715663035416E-29, 8.874685183736382811E-31 ) ) ;
#159 = EDGE_LOOP ( 'NONE', ( #285 ) ) ;
#160 = ORIENTED_EDGE ( 'NONE', *, *, #73, .T. ) ;
#161 = ADVANCED_FACE ( 'NONE', ( #36, #59 ), #67, .F. ) ;
#162 = PLANE ( 'NONE',  #191 ) ;
#163 = CC_DESIGN_PERSON_AND_ORGANIZATION_ASSIGNMENT ( #155, #280, ( #42 ) ) ;
#164 = AXIS2_PLACEMENT_3D ( 'NONE', #90, #264, #16 ) ;
#165 = FACE_OUTER_BOUND ( 'NONE', #50, .T. ) ;
#166 = FACE_OUTER_BOUND ( 'NONE', #18, .T. ) ;
#167 = EDGE_CURVE ( 'NONE', #205, #205, #211, .T. ) ;
#168 = AXIS2_PLACEMENT_3D ( 'NONE', #113, #239, #281 ) ;
#169 = DIRECTION ( 'NONE',  ( 1.676329423594654641E-30, -4.857225732735073423E-17, 1.000000000000000000 ) ) ;
#170 = COORDINATED_UNIVERSAL_TIME_OFFSET ( 0, 0, .AHEAD. ) ;
#171 = DATE_AND_TIME ( #132, #199 ) ;
#172 = DATE_AND_TIME ( #215, #275 ) ;
#173 = DIRECTION ( 'NONE',  ( 1.000000000000000000, -2.366582715663035416E-29, 8.874685183736382811E-31 ) ) ;
#174 = MECHANICAL_CONTEXT ( 'NONE', #213, 'mechanical' ) ;
#175 = CYLINDRICAL_SURFACE ( 'NONE', #197, 130.4999999999996305 ) ;
#176 = FACE_OUTER_BOUND ( 'NONE', #201, .T. ) ;
#177 = AXIS2_PLACEMENT_3D ( 'NONE', #244, #139, #40 ) ;
#178 = ORIENTED_EDGE ( 'NONE', *, *, #87, .T. ) ;
#179 = CYLINDRICAL_SURFACE ( 'NONE', #207, 142.4999999999996021 ) ;
#180 = EDGE_LOOP ( 'NONE', ( #250 ) ) ;
#181 = FACE_BOUND ( 'NONE', #247, .T. ) ;
#182 = EDGE_CURVE ( 'NONE', #271, #271, #131, .T. ) ;
#183 = VERTEX_POINT ( 'NONE', #51 ) ;
#184 = CC_DESIGN_APPROVAL ( #214, ( #42 ) ) ;
#185 = PRODUCT ( 'ISO250B267-304', 'ISO250B267-304', '', ( #174 ) ) ;
#186 = PLANE ( 'NONE',  #7 ) ;
#187 = AXIS2_PLACEMENT_3D ( 'NONE', #196, #223, #195 ) ;
#188 = FACE_OUTER_BOUND ( 'NONE', #97, .T. ) ;
#189 = PERSON_AND_ORGANIZATION_ROLE ( 'classification_officer' ) ;
#190 = FACE_OUTER_BOUND ( 'NONE', #3, .T. ) ;
#191 = AXIS2_PLACEMENT_3D ( 'NONE', #5, #78, #169 ) ;
#192 = APPROVAL_ROLE ( '' ) ;
#193 = CARTESIAN_POINT ( 'NONE',  ( 12.00000000000001066, -3.944304526105059027E-28, -3.944304526105059027E-27 ) ) ;
#194 = CARTESIAN_POINT ( 'NONE',  ( 10.00000000000000888, 0.000000000000000000, -3.549874073494553124E-27 ) ) ;
#195 = DIRECTION ( 'NONE',  ( 0.000000000000000000, 4.857225732735072807E-17, -1.000000000000000000 ) ) ;
#196 = CARTESIAN_POINT ( 'NONE',  ( 2.344816390529635974, 3.944304526105059027E-28, -3.944304526105059027E-27 ) ) ;
#197 = AXIS2_PLACEMENT_3D ( 'NONE', #41, #133, #216 ) ;
#198 = EDGE_LOOP ( 'NONE', ( #72 ) ) ;
#199 = LOCAL_TIME ( 11, 32, 52.00000000000000000, #258 ) ;
#200 = ORIENTED_EDGE ( 'NONE', *, *, #48, .F. ) ;
#201 = EDGE_LOOP ( 'NONE', ( #226 ) ) ;
#202 = CC_DESIGN_DATE_AND_TIME_ASSIGNMENT ( #274, #55, ( #65 ) ) ;
#203 = ORIENTED_EDGE ( 'NONE', *, *, #128, .T. ) ;
#204 = DIRECTION ( 'NONE',  ( 1.000000000000000000, -2.366582715663035416E-29, 8.874685183736382811E-31 ) ) ;
#205 = VERTEX_POINT ( 'NONE', #100 ) ;
#206 = APPLICATION_CONTEXT ( 'configuration controlled 3d designs of mechanical parts and assemblies' ) ;
#207 = AXIS2_PLACEMENT_3D ( 'NONE', #99, #204, #75 ) ;
#208 = CARTESIAN_POINT ( 'NONE',  ( -2.187609897791018363E-28, 6.338679581219253123E-15, -130.4999999999996305 ) ) ;
#209 = DIRECTION ( 'NONE',  ( 1.000000000000000000, -2.366582715663035696E-29, -1.676329423594655692E-30 ) ) ;
#210 = PERSON_AND_ORGANIZATION_ROLE ( 'creator' ) ;
#211 = CIRCLE ( 'NONE', #91, 144.9999999999996021 ) ;
#212 = PERSON_AND_ORGANIZATION ( #141, #259 ) ;
#213 = APPLICATION_CONTEXT ( 'configuration controlled 3d designs of mechanical parts and assemblies' ) ;
#214 = APPROVAL ( #37, 'UNSPECIFIED' ) ;
#215 = CALENDAR_DATE ( 2022, 20, 7 ) ;
#216 = DIRECTION ( 'NONE',  ( 0.000000000000000000, 4.857225732735073423E-17, -1.000000000000000000 ) ) ;
#217 = DESIGN_CONTEXT ( 'detailed design', #206, 'design' ) ;
#218 = EDGE_CURVE ( 'NONE', #76, #76, #85, .T. ) ;
#219 = CALENDAR_DATE ( 2022, 20, 7 ) ;
#220 = AXIS2_PLACEMENT_3D ( 'NONE', #194, #173, #61 ) ;
#221 = DIRECTION ( 'NONE',  ( 1.000000000000000000, -2.366582715663035416E-29, 8.874685183736382811E-31 ) ) ;
#222 = DIRECTION ( 'NONE',  ( 0.000000000000000000, 4.857225732735072807E-17, -1.000000000000000000 ) ) ;
#223 = DIRECTION ( 'NONE',  ( 1.000000000000000000, -2.366582715663035416E-29, 8.874685183736382811E-31 ) ) ;
#224 = EDGE_LOOP ( 'NONE', ( #46 ) ) ;
#225 = ORIENTED_EDGE ( 'NONE', *, *, #218, .T. ) ;
#226 = ORIENTED_EDGE ( 'NONE', *, *, #92, .F. ) ;
#227 = DIRECTION ( 'NONE',  ( -1.676329423594654641E-30, 4.857225732735073423E-17, -1.000000000000000000 ) ) ;
#228 = ORIENTED_EDGE ( 'NONE', *, *, #167, .T. ) ;
#229 = MANIFOLD_SOLID_BREP ( 'Cut-Extrude1', #95 ) ;
#230 = FACE_BOUND ( 'NONE', #224, .T. ) ;
#231 = PRODUCT_DEFINITION ( 'UNKNOWN', '', #42, #217 ) ;
#232 = DIRECTION ( 'NONE',  ( 1.000000000000000000, -2.366582715663035416E-29, 8.874685183736382811E-31 ) ) ;
#233 = VERTEX_POINT ( 'NONE', #144 ) ;
#234 = ADVANCED_FACE ( 'NONE', ( #110, #277 ), #84, .T. ) ;
#235 = CYLINDRICAL_SURFACE ( 'NONE', #136, 144.9999999999996021 ) ;
#236 = APPROVAL_ROLE ( '' ) ;
#237 = DIRECTION ( 'NONE',  ( 1.000000000000000000, -2.366582715663035416E-29, 8.874685183736382811E-31 ) ) ;
#238 = SECURITY_CLASSIFICATION_LEVEL ( 'unclassified' ) ;
#239 = DIRECTION ( 'NONE',  ( 1.000000000000000000, -2.366582715663035416E-29, 8.874685183736382811E-31 ) ) ;
#240 = UNCERTAINTY_MEASURE_WITH_UNIT (LENGTH_MEASURE( 1.000000000000000082E-05 ), #24, 'distance_accuracy_value', 'NONE');
#241 = DIRECTION ( 'NONE',  ( 0.000000000000000000, 0.000000000000000000, 1.000000000000000000 ) ) ;
#242 = DIRECTION ( 'NONE',  ( 0.000000000000000000, 4.857225732735072190E-17, -1.000000000000000000 ) ) ;
#243 = CIRCLE ( 'NONE', #107, 130.4999999999996305 ) ;
#244 = CARTESIAN_POINT ( 'NONE',  ( 6.000000000000005329, 2.366582715663035416E-27, -4.338734978715564930E-27 ) ) ;
#245 = DIRECTION ( 'NONE',  ( 0.000000000000000000, 4.857225732735072807E-17, -1.000000000000000000 ) ) ;
#246 = AXIS2_PLACEMENT_3D ( 'NONE', #273, #241, #80 ) ;
#247 = EDGE_LOOP ( 'NONE', ( #93 ) ) ;
#248 = AXIS2_PLACEMENT_3D ( 'NONE', #193, #237, #11 ) ;
#249 = EDGE_LOOP ( 'NONE', ( #21 ) ) ;
#250 = ORIENTED_EDGE ( 'NONE', *, *, #119, .F. ) ;
#251 = ADVANCED_FACE ( 'NONE', ( #230, #165 ), #25, .T. ) ;
#252 = DIRECTION ( 'NONE',  ( 8.874685183736395072E-31, 4.857225732735073423E-17, -1.000000000000000000 ) ) ;
#253 = EDGE_LOOP ( 'NONE', ( #47 ) ) ;
#254 = CARTESIAN_POINT ( 'NONE',  ( 12.00000000000001066, 6.921546669147065087E-15, -142.4999999999996021 ) ) ;
#255 = VERTEX_POINT ( 'NONE', #53 ) ;
#256 = CC_DESIGN_APPROVAL ( #116, ( #65 ) ) ;
#257 = VERTEX_POINT ( 'NONE', #49 ) ;
#258 = COORDINATED_UNIVERSAL_TIME_OFFSET ( 0, 0, .AHEAD. ) ;
#259 = ORGANIZATION ( 'UNSPECIFIED', 'UNSPECIFIED', '' ) ;
#260 = APPROVAL_STATUS ( 'not_yet_approved' ) ;
#261 = DIRECTION ( 'NONE',  ( -1.676329423594654991E-30, 4.857225732735073423E-17, -1.000000000000000000 ) ) ;
#262 = PERSON_AND_ORGANIZATION ( #141, #259 ) ;
#263 = DIRECTION ( 'NONE',  ( 1.000000000000000000, -2.366582715663035416E-29, 8.874685183736382811E-31 ) ) ;
#264 = DIRECTION ( 'NONE',  ( 1.000000000000000000, -2.366582715663035416E-29, 8.874685183736382811E-31 ) ) ;
#265 = APPROVAL_DATE_TIME ( #172, #214 ) ;
#266 = APPROVAL_PERSON_ORGANIZATION ( #108, #69, #236 ) ;
#267 = EDGE_LOOP ( 'NONE', ( #203 ) ) ;
#268 = ADVANCED_FACE ( 'NONE', ( #181, #74 ), #162, .T. ) ;
#269 = ORIENTED_EDGE ( 'NONE', *, *, #48, .T. ) ;
#270 = DIRECTION ( 'NONE',  ( 1.000000000000000000, -2.366582715663035696E-29, -1.676329423594655692E-30 ) ) ;
#271 = VERTEX_POINT ( 'NONE', #125 ) ;
#272 = ORIENTED_EDGE ( 'NONE', *, *, #128, .F. ) ;
#273 = CARTESIAN_POINT ( 'NONE',  ( 0.000000000000000000, 0.000000000000000000, 0.000000000000000000 ) ) ;
#274 = DATE_AND_TIME ( #219, #81 ) ;
#275 = LOCAL_TIME ( 11, 32, 52.00000000000000000, #135 ) ;
#276 = COORDINATED_UNIVERSAL_TIME_OFFSET ( 0, 0, .AHEAD. ) ;
#277 = FACE_BOUND ( 'NONE', #249, .T. ) ;
#278 = AXIS2_PLACEMENT_3D ( 'NONE', #28, #209, #98 ) ;
#279 = DIRECTION ( 'NONE',  ( 1.000000000000000000, -2.366582715663035416E-29, 8.874685183736382811E-31 ) ) ;
#280 = PERSON_AND_ORGANIZATION_ROLE ( 'design_supplier' ) ;
#281 = DIRECTION ( 'NONE',  ( 0.000000000000000000, 4.857225732735072807E-17, -1.000000000000000000 ) ) ;
#282 = CARTESIAN_POINT ( 'NONE',  ( 10.00000000000000888, 0.000000000000000000, -3.549874073494553124E-27 ) ) ;
#283 = ADVANCED_FACE ( 'NONE', ( #146, #22 ), #52, .F. ) ;
#284 = AXIS2_PLACEMENT_3D ( 'NONE', #33, #263, #115 ) ;
#285 = ORIENTED_EDGE ( 'NONE', *, *, #182, .F. ) ;
#286 = EDGE_LOOP ( 'NONE', ( #225 ) ) ;
#287 = CIRCLE ( 'NONE', #168, 144.9999999999996021 ) ;
#288 = ORIENTED_EDGE ( 'NONE', *, *, #73, .F. ) ;
#289 = ORIENTED_EDGE ( 'NONE', *, *, #182, .T. ) ;
ENDSEC;
END-ISO-10303-21;
